ISO-10303-21;
HEADER;
FILE_DESCRIPTION (( 'STEP AP203' ),
    '1' );
FILE_NAME ('3641.STEP',
    '2023-02-13T14:37:29',
    ( '' ),
    ( '' ),
    'SwSTEP 2.0',
    'SolidWorks 2019',
    '' );
FILE_SCHEMA (( 'CONFIG_CONTROL_DESIGN' ));
ENDSEC;

DATA;
#1 = DATE_AND_TIME ( #44, #163 ) ;
#2 = SECURITY_CLASSIFICATION_LEVEL ( 'unclassified' ) ;
#3 = CARTESIAN_POINT ( 'NONE',  ( 2.500000000000000000, 3.061616997868383141E-16, 160.0000000000000000 ) ) ;
#4 = EDGE_LOOP ( 'NONE', ( #123, #167 ) ) ;
#5 = ORIENTED_EDGE ( 'NONE', *, *, #65, .T. ) ;
#6 = ORGANIZATION ( 'NEURÈENÝ', 'NEURÈENÝ', '' ) ;
#7 = MANIFOLD_SOLID_BREP ( 'Pøidat vysunutím3', #68 ) ;
#8 = ORIENTED_EDGE ( 'NONE', *, *, #166, .F. ) ;
#9 = ORIENTED_EDGE ( 'NONE', *, *, #223, .T. ) ;
#10 = APPROVAL_DATE_TIME ( #91, #194 ) ;
#11 = CARTESIAN_POINT ( 'NONE',  ( 0.000000000000000000, 0.000000000000000000, 3.000000000000000000 ) ) ;
#12 = CC_DESIGN_APPROVAL ( #80, ( #250 ) ) ;
#13 = FACE_OUTER_BOUND ( 'NONE', #4, .T. ) ;
#14 = CARTESIAN_POINT ( 'NONE',  ( 0.000000000000000000, 0.000000000000000000, 3.000000000000000000 ) ) ;
#15 = ADVANCED_FACE ( 'NONE', ( #73 ), #144, .T. ) ;
#16 = CARTESIAN_POINT ( 'NONE',  ( -5.000000000000000000, 0.000000000000000000, 0.000000000000000000 ) ) ;
#17 = LINE ( 'NONE', #254, #153 ) ;
#18 = DIRECTION ( 'NONE',  ( 0.000000000000000000, 0.000000000000000000, 1.000000000000000000 ) ) ;
#19 = APPROVAL_ROLE ( '' ) ;
#20 = DESIGN_CONTEXT ( 'detailed design', #82, 'design' ) ;
#21 = CIRCLE ( 'NONE', #110, 2.500000000000000000 ) ;
#22 = DATE_AND_TIME ( #116, #150 ) ;
#23 = APPROVAL_PERSON_ORGANIZATION ( #34, #194, #181 ) ;
#24 = PERSON_AND_ORGANIZATION ( #253, #6 ) ;
#25 = DIRECTION ( 'NONE',  ( -0.000000000000000000, -0.000000000000000000, -1.000000000000000000 ) ) ;
#26 =( NAMED_UNIT ( * ) SI_UNIT ( $, .STERADIAN. ) SOLID_ANGLE_UNIT ( ) );
#27 = FACE_OUTER_BOUND ( 'NONE', #50, .T. ) ;
#28 = VERTEX_POINT ( 'NONE', #126 ) ;
#29 = APPLICATION_CONTEXT ( 'configuration controlled 3d designs of mechanical parts and assemblies' ) ;
#30 = ORIENTED_EDGE ( 'NONE', *, *, #72, .T. ) ;
#31 = AXIS2_PLACEMENT_3D ( 'NONE', #172, #168, #57 ) ;
#32 = CC_DESIGN_APPROVAL ( #54, ( #232 ) ) ;
#33 = ORIENTED_EDGE ( 'NONE', *, *, #131, .T. ) ;
#34 = PERSON_AND_ORGANIZATION ( #253, #6 ) ;
#35 = FACE_BOUND ( 'NONE', #206, .T. ) ;
#36 = ADVANCED_FACE ( 'NONE', ( #35, #187 ), #146, .T. ) ;
#37 = DIRECTION ( 'NONE',  ( 1.000000000000000000, 0.000000000000000000, 0.000000000000000000 ) ) ;
#38 = DIRECTION ( 'NONE',  ( -0.000000000000000000, -0.000000000000000000, -1.000000000000000000 ) ) ;
#39 = DIRECTION ( 'NONE',  ( 0.000000000000000000, 0.000000000000000000, 1.000000000000000000 ) ) ;
#40 = AXIS2_PLACEMENT_3D ( 'NONE', #142, #104, #55 ) ;
#41 = PERSON_AND_ORGANIZATION ( #253, #6 ) ;
#42 = CC_DESIGN_PERSON_AND_ORGANIZATION_ASSIGNMENT ( #197, #156, ( #232 ) ) ;
#43 = PERSON_AND_ORGANIZATION_ROLE ( 'design_supplier' ) ;
#44 = CALENDAR_DATE ( 2023, 13, 2 ) ;
#45 = ADVANCED_FACE ( 'NONE', ( #27 ), #200, .T. ) ;
#46 = CARTESIAN_POINT ( 'NONE',  ( -2.500000000000000000, 0.000000000000000000, 3.000000000000000000 ) ) ;
#47 = CALENDAR_DATE ( 2023, 13, 2 ) ;
#48 = SECURITY_CLASSIFICATION ( '', '', #2 ) ;
#49 = CALENDAR_DATE ( 2023, 13, 2 ) ;
#50 = EDGE_LOOP ( 'NONE', ( #164, #33 ) ) ;
#51 = ORIENTED_EDGE ( 'NONE', *, *, #131, .F. ) ;
#52 = ORIENTED_EDGE ( 'NONE', *, *, #213, .T. ) ;
#53 = CIRCLE ( 'NONE', #220, 2.500000000000000000 ) ;
#54 = APPROVAL ( #101, 'NEURÈENÝ' ) ;
#55 = DIRECTION ( 'NONE',  ( -1.000000000000000000, 0.000000000000000000, 0.000000000000000000 ) ) ;
#56 = DIRECTION ( 'NONE',  ( 1.000000000000000000, 0.000000000000000000, 0.000000000000000000 ) ) ;
#57 = DIRECTION ( 'NONE',  ( 1.000000000000000000, 0.000000000000000000, 0.000000000000000000 ) ) ;
#58 = CARTESIAN_POINT ( 'NONE',  ( -2.500000000000000000, 0.000000000000000000, 160.0000000000000000 ) ) ;
#59 = DIRECTION ( 'NONE',  ( -1.000000000000000000, 0.000000000000000000, 0.000000000000000000 ) ) ;
#60 = CARTESIAN_POINT ( 'NONE',  ( 0.000000000000000000, 0.000000000000000000, 160.0000000000000000 ) ) ;
#61 = CC_DESIGN_DATE_AND_TIME_ASSIGNMENT ( #118, #89, ( #48 ) ) ;
#62 = CARTESIAN_POINT ( 'NONE',  ( 0.000000000000000000, 0.000000000000000000, 0.000000000000000000 ) ) ;
#63 = APPROVAL_DATE_TIME ( #1, #80 ) ;
#64 = APPROVAL_DATE_TIME ( #22, #54 ) ;
#65 = EDGE_CURVE ( 'NONE', #106, #245, #81, .T. ) ;
#66 = AXIS2_PLACEMENT_3D ( 'NONE', #114, #109, #56 ) ;
#67 = COORDINATED_UNIVERSAL_TIME_OFFSET ( 1, 0, .AHEAD. ) ;
#68 = CLOSED_SHELL ( 'NONE', ( #15, #119, #229, #36, #93, #186, #45 ) ) ;
#69 = EDGE_LOOP ( 'NONE', ( #165, #70, #90, #92 ) ) ;
#70 = ORIENTED_EDGE ( 'NONE', *, *, #103, .F. ) ;
#71 = VERTEX_POINT ( 'NONE', #151 ) ;
#72 = EDGE_CURVE ( 'NONE', #71, #225, #217, .T. ) ;
#73 = FACE_OUTER_BOUND ( 'NONE', #88, .T. ) ;
#74 = AXIS2_PLACEMENT_3D ( 'NONE', #62, #198, #240 ) ;
#75 = CARTESIAN_POINT ( 'NONE',  ( -5.000000000000000000, 0.000000000000000000, 3.000000000000000000 ) ) ;
#76 = DIRECTION ( 'NONE',  ( 1.000000000000000000, 0.000000000000000000, 0.000000000000000000 ) ) ;
#77 = CIRCLE ( 'NONE', #31, 2.500000000000000000 ) ;
#78 = CARTESIAN_POINT ( 'NONE',  ( 0.000000000000000000, 0.000000000000000000, 3.000000000000000000 ) ) ;
#79 = DIRECTION ( 'NONE',  ( -0.000000000000000000, -0.000000000000000000, -1.000000000000000000 ) ) ;
#80 = APPROVAL ( #84, 'NEURÈENÝ' ) ;
#81 = LINE ( 'NONE', #133, #138 ) ;
#82 = APPLICATION_CONTEXT ( 'configuration controlled 3d designs of mechanical parts and assemblies' ) ;
#83 = AXIS2_PLACEMENT_3D ( 'NONE', #14, #152, #212 ) ;
#84 = APPROVAL_STATUS ( 'not_yet_approved' ) ;
#85 = CARTESIAN_POINT ( 'NONE',  ( 2.500000000000000000, 3.061616997868383141E-16, 3.000000000000000000 ) ) ;
#86 = COORDINATED_UNIVERSAL_TIME_OFFSET ( 1, 0, .AHEAD. ) ;
#87 = PERSON_AND_ORGANIZATION_ROLE ( 'classification_officer' ) ;
#88 = EDGE_LOOP ( 'NONE', ( #51, #205, #52, #183 ) ) ;
#89 = DATE_TIME_ROLE ( 'classification_date' ) ;
#90 = ORIENTED_EDGE ( 'NONE', *, *, #166, .T. ) ;
#91 = DATE_AND_TIME ( #49, #176 ) ;
#92 = ORIENTED_EDGE ( 'NONE', *, *, #155, .T. ) ;
#93 = ADVANCED_FACE ( 'NONE', ( #13 ), #255, .F. ) ;
#94 = ORIENTED_EDGE ( 'NONE', *, *, #103, .T. ) ;
#95 = DIRECTION ( 'NONE',  ( 0.000000000000000000, 0.000000000000000000, 1.000000000000000000 ) ) ;
#96 = CYLINDRICAL_SURFACE ( 'NONE', #120, 2.500000000000000000 ) ;
#97 = DIRECTION ( 'NONE',  ( -1.000000000000000000, 0.000000000000000000, 0.000000000000000000 ) ) ;
#98 = VECTOR ( 'NONE', #38, 1000.000000000000000 ) ;
#99 = CALENDAR_DATE ( 2023, 13, 2 ) ;
#100 = PERSON_AND_ORGANIZATION ( #253, #6 ) ;
#101 = APPROVAL_STATUS ( 'not_yet_approved' ) ;
#102 = MECHANICAL_CONTEXT ( 'NONE', #29, 'mechanical' ) ;
#103 = EDGE_CURVE ( 'NONE', #222, #243, #234, .T. ) ;
#104 = DIRECTION ( 'NONE',  ( -0.000000000000000000, -0.000000000000000000, -1.000000000000000000 ) ) ;
#105 = AXIS2_PLACEMENT_3D ( 'NONE', #249, #127, #76 ) ;
#106 = VERTEX_POINT ( 'NONE', #58 ) ;
#107 = APPROVAL_PERSON_ORGANIZATION ( #236, #54, #19 ) ;
#108 = ORIENTED_EDGE ( 'NONE', *, *, #128, .F. ) ;
#109 = DIRECTION ( 'NONE',  ( 0.000000000000000000, 0.000000000000000000, 1.000000000000000000 ) ) ;
#110 = AXIS2_PLACEMENT_3D ( 'NONE', #60, #228, #37 ) ;
#111 = CC_DESIGN_DATE_AND_TIME_ASSIGNMENT ( #215, #174, ( #232 ) ) ;
#112 = FACE_OUTER_BOUND ( 'NONE', #226, .T. ) ;
#113 = DIRECTION ( 'NONE',  ( -0.000000000000000000, -0.000000000000000000, -1.000000000000000000 ) ) ;
#114 = CARTESIAN_POINT ( 'NONE',  ( 0.000000000000000000, 0.000000000000000000, 0.000000000000000000 ) ) ;
#115 = DIRECTION ( 'NONE',  ( 0.000000000000000000, 0.000000000000000000, 1.000000000000000000 ) ) ;
#116 = CALENDAR_DATE ( 2023, 13, 2 ) ;
#117 =( NAMED_UNIT ( * ) PLANE_ANGLE_UNIT ( ) SI_UNIT ( $, .RADIAN. ) );
#118 = DATE_AND_TIME ( #47, #125 ) ;
#119 = ADVANCED_FACE ( 'NONE', ( #173 ), #214, .T. ) ;
#120 = AXIS2_PLACEMENT_3D ( 'NONE', #192, #113, #97 ) ;
#121 = DIRECTION ( 'NONE',  ( 1.000000000000000000, 0.000000000000000000, -0.000000000000000000 ) ) ;
#122 = ORIENTED_EDGE ( 'NONE', *, *, #145, .F. ) ;
#123 = ORIENTED_EDGE ( 'NONE', *, *, #155, .F. ) ;
#124 = ORIENTED_EDGE ( 'NONE', *, *, #223, .F. ) ;
#125 = LOCAL_TIME ( 15, 37, 29.00000000000000000, #160 ) ;
#126 = CARTESIAN_POINT ( 'NONE',  ( 2.500000000000000000, 3.061616997868383141E-16, 160.0000000000000000 ) ) ;
#127 = DIRECTION ( 'NONE',  ( 0.000000000000000000, 0.000000000000000000, 1.000000000000000000 ) ) ;
#128 = EDGE_CURVE ( 'NONE', #245, #244, #77, .T. ) ;
#129 = CARTESIAN_POINT ( 'NONE',  ( 0.000000000000000000, 0.000000000000000000, 160.0000000000000000 ) ) ;
#130 = DIRECTION ( 'NONE',  ( 0.000000000000000000, 0.000000000000000000, 1.000000000000000000 ) ) ;
#131 = EDGE_CURVE ( 'NONE', #28, #106, #134, .T. ) ;
#132 = CARTESIAN_POINT ( 'NONE',  ( 0.000000000000000000, 0.000000000000000000, 3.000000000000000000 ) ) ;
#133 = CARTESIAN_POINT ( 'NONE',  ( -2.500000000000000000, 0.000000000000000000, 160.0000000000000000 ) ) ;
#134 = CIRCLE ( 'NONE', #208, 2.500000000000000000 ) ;
#135 = LOCAL_TIME ( 15, 37, 29.00000000000000000, #86 ) ;
#136 = APPLICATION_PROTOCOL_DEFINITION ( 'international standard', 'config_control_design', 1994, #29 ) ;
#137 = PERSON_AND_ORGANIZATION_ROLE ( 'creator' ) ;
#138 = VECTOR ( 'NONE', #190, 1000.000000000000000 ) ;
#139 = PRODUCT_RELATED_PRODUCT_CATEGORY ( 'detail', '', ( #211 ) ) ;
#140 = CIRCLE ( 'NONE', #175, 5.000000000000000000 ) ;
#141 = CC_DESIGN_SECURITY_CLASSIFICATION ( #48, ( #250 ) ) ;
#142 = CARTESIAN_POINT ( 'NONE',  ( 0.000000000000000000, 0.000000000000000000, 160.0000000000000000 ) ) ;
#143 = ORIENTED_EDGE ( 'NONE', *, *, #128, .T. ) ;
#144 = CYLINDRICAL_SURFACE ( 'NONE', #40, 2.500000000000000000 ) ;
#145 = EDGE_CURVE ( 'NONE', #106, #28, #21, .T. ) ;
#146 = PLANE ( 'NONE',  #199 ) ;
#147 = PRODUCT_DEFINITION_SHAPE ( 'NONE', 'NONE',  #232 ) ;
#148 = DIRECTION ( 'NONE',  ( 0.000000000000000000, 0.000000000000000000, 1.000000000000000000 ) ) ;
#149 = CARTESIAN_POINT ( 'NONE',  ( 0.000000000000000000, 0.000000000000000000, 0.000000000000000000 ) ) ;
#150 = LOCAL_TIME ( 15, 37, 29.00000000000000000, #179 ) ;
#151 = CARTESIAN_POINT ( 'NONE',  ( 5.000000000000000000, 6.123233995736766282E-16, 0.000000000000000000 ) ) ;
#152 = DIRECTION ( 'NONE',  ( -0.000000000000000000, -0.000000000000000000, -1.000000000000000000 ) ) ;
#153 = VECTOR ( 'NONE', #79, 1000.000000000000000 ) ;
#154 = UNCERTAINTY_MEASURE_WITH_UNIT (LENGTH_MEASURE( 1.000000000000000082E-05 ), #157, 'distance_accuracy_value', 'NONE');
#155 = EDGE_CURVE ( 'NONE', #225, #71, #171, .T. ) ;
#156 = PERSON_AND_ORGANIZATION_ROLE ( 'creator' ) ;
#157 =( LENGTH_UNIT ( ) NAMED_UNIT ( * ) SI_UNIT ( .MILLI., .METRE. ) );
#158 = LINE ( 'NONE', #3, #242 ) ;
#159 = CC_DESIGN_PERSON_AND_ORGANIZATION_ASSIGNMENT ( #237, #43, ( #250 ) ) ;
#160 = COORDINATED_UNIVERSAL_TIME_OFFSET ( 1, 0, .AHEAD. ) ;
#161 = EDGE_LOOP ( 'NONE', ( #94, #9 ) ) ;
#162 = AXIS2_PLACEMENT_3D ( 'NONE', #78, #231, #59 ) ;
#163 = LOCAL_TIME ( 15, 37, 29.00000000000000000, #235 ) ;
#164 = ORIENTED_EDGE ( 'NONE', *, *, #145, .T. ) ;
#165 = ORIENTED_EDGE ( 'NONE', *, *, #196, .F. ) ;
#166 = EDGE_CURVE ( 'NONE', #222, #225, #248, .T. ) ;
#167 = ORIENTED_EDGE ( 'NONE', *, *, #72, .F. ) ;
#168 = DIRECTION ( 'NONE',  ( 0.000000000000000000, 0.000000000000000000, 1.000000000000000000 ) ) ;
#169 = CARTESIAN_POINT ( 'NONE',  ( -5.000000000000000000, 0.000000000000000000, 3.000000000000000000 ) ) ;
#170 = FACE_OUTER_BOUND ( 'NONE', #69, .T. ) ;
#171 = CIRCLE ( 'NONE', #66, 5.000000000000000000 ) ;
#172 = CARTESIAN_POINT ( 'NONE',  ( 0.000000000000000000, 0.000000000000000000, 3.000000000000000000 ) ) ;
#173 = FACE_OUTER_BOUND ( 'NONE', #185, .T. ) ;
#174 = DATE_TIME_ROLE ( 'creation_date' ) ;
#175 = AXIS2_PLACEMENT_3D ( 'NONE', #132, #130, #210 ) ;
#176 = LOCAL_TIME ( 15, 37, 29.00000000000000000, #67 ) ;
#177 = APPROVAL_ROLE ( '' ) ;
#178 = PERSON_AND_ORGANIZATION ( #253, #6 ) ;
#179 = COORDINATED_UNIVERSAL_TIME_OFFSET ( 1, 0, .AHEAD. ) ;
#180 = AXIS2_PLACEMENT_3D ( 'NONE', #201, #18, #209 ) ;
#181 = APPROVAL_ROLE ( '' ) ;
#182 = ORIENTED_EDGE ( 'NONE', *, *, #247, .F. ) ;
#183 = ORIENTED_EDGE ( 'NONE', *, *, #65, .F. ) ;
#184 = APPROVAL_STATUS ( 'not_yet_approved' ) ;
#185 = EDGE_LOOP ( 'NONE', ( #124, #246, #30, #8 ) ) ;
#186 = ADVANCED_FACE ( 'NONE', ( #112 ), #96, .T. ) ;
#187 = FACE_OUTER_BOUND ( 'NONE', #161, .T. ) ;
#188 = CARTESIAN_POINT ( 'NONE',  ( 0.000000000000000000, 0.000000000000000000, 3.000000000000000000 ) ) ;
#189 = CC_DESIGN_APPROVAL ( #194, ( #48 ) ) ;
#190 = DIRECTION ( 'NONE',  ( -0.000000000000000000, -0.000000000000000000, -1.000000000000000000 ) ) ;
#191 = DIRECTION ( 'NONE',  ( 1.000000000000000000, 0.000000000000000000, 0.000000000000000000 ) ) ;
#192 = CARTESIAN_POINT ( 'NONE',  ( 0.000000000000000000, 0.000000000000000000, 160.0000000000000000 ) ) ;
#193 = DIRECTION ( 'NONE',  ( 1.000000000000000000, 0.000000000000000000, 0.000000000000000000 ) ) ;
#194 = APPROVAL ( #184, 'NEURÈENÝ' ) ;
#195 = CARTESIAN_POINT ( 'NONE',  ( 5.000000000000000000, 6.123233995736766282E-16, 3.000000000000000000 ) ) ;
#196 = EDGE_CURVE ( 'NONE', #243, #71, #17, .T. ) ;
#197 = PERSON_AND_ORGANIZATION ( #253, #6 ) ;
#198 = DIRECTION ( 'NONE',  ( 0.000000000000000000, 0.000000000000000000, 1.000000000000000000 ) ) ;
#199 = AXIS2_PLACEMENT_3D ( 'NONE', #11, #227, #121 ) ;
#200 = PLANE ( 'NONE',  #180 ) ;
#201 = CARTESIAN_POINT ( 'NONE',  ( 0.000000000000000000, 0.000000000000000000, 160.0000000000000000 ) ) ;
#202 = ADVANCED_BREP_SHAPE_REPRESENTATION ( '3641', ( #7, #74 ), #218 ) ;
#203 = AXIS2_PLACEMENT_3D ( 'NONE', #188, #39, #207 ) ;
#204 = CC_DESIGN_PERSON_AND_ORGANIZATION_ASSIGNMENT ( #100, #137, ( #250 ) ) ;
#205 = ORIENTED_EDGE ( 'NONE', *, *, #247, .T. ) ;
#206 = EDGE_LOOP ( 'NONE', ( #108, #221 ) ) ;
#207 = DIRECTION ( 'NONE',  ( 1.000000000000000000, 0.000000000000000000, 0.000000000000000000 ) ) ;
#208 = AXIS2_PLACEMENT_3D ( 'NONE', #129, #95, #193 ) ;
#209 = DIRECTION ( 'NONE',  ( 1.000000000000000000, 0.000000000000000000, -0.000000000000000000 ) ) ;
#210 = DIRECTION ( 'NONE',  ( 1.000000000000000000, 0.000000000000000000, 0.000000000000000000 ) ) ;
#211 = PRODUCT ( '3641', '3641', '', ( #102 ) ) ;
#212 = DIRECTION ( 'NONE',  ( -1.000000000000000000, 0.000000000000000000, 0.000000000000000000 ) ) ;
#213 = EDGE_CURVE ( 'NONE', #244, #245, #53, .T. ) ;
#214 = CYLINDRICAL_SURFACE ( 'NONE', #83, 5.000000000000000000 ) ;
#215 = DATE_AND_TIME ( #99, #135 ) ;
#216 = APPLICATION_PROTOCOL_DEFINITION ( 'international standard', 'config_control_design', 1994, #82 ) ;
#217 = CIRCLE ( 'NONE', #105, 5.000000000000000000 ) ;
#218 =( GEOMETRIC_REPRESENTATION_CONTEXT ( 3 ) GLOBAL_UNCERTAINTY_ASSIGNED_CONTEXT ( ( #154 ) ) GLOBAL_UNIT_ASSIGNED_CONTEXT ( ( #157, #117, #26 ) ) REPRESENTATION_CONTEXT ( 'NONE', 'WORKASPACE' ) );
#219 = PERSON_AND_ORGANIZATION_ROLE ( 'design_owner' ) ;
#220 = AXIS2_PLACEMENT_3D ( 'NONE', #233, #115, #191 ) ;
#221 = ORIENTED_EDGE ( 'NONE', *, *, #213, .F. ) ;
#222 = VERTEX_POINT ( 'NONE', #169 ) ;
#223 = EDGE_CURVE ( 'NONE', #243, #222, #140, .T. ) ;
#224 = SHAPE_DEFINITION_REPRESENTATION ( #147, #202 ) ;
#225 = VERTEX_POINT ( 'NONE', #16 ) ;
#226 = EDGE_LOOP ( 'NONE', ( #182, #122, #5, #143 ) ) ;
#227 = DIRECTION ( 'NONE',  ( 0.000000000000000000, 0.000000000000000000, 1.000000000000000000 ) ) ;
#228 = DIRECTION ( 'NONE',  ( 0.000000000000000000, 0.000000000000000000, 1.000000000000000000 ) ) ;
#229 = ADVANCED_FACE ( 'NONE', ( #170 ), #251, .T. ) ;
#230 = DIRECTION ( 'NONE',  ( 1.000000000000000000, 0.000000000000000000, -0.000000000000000000 ) ) ;
#231 = DIRECTION ( 'NONE',  ( -0.000000000000000000, -0.000000000000000000, -1.000000000000000000 ) ) ;
#232 = PRODUCT_DEFINITION ( 'NEZNÁMÝ', '', #250, #20 ) ;
#233 = CARTESIAN_POINT ( 'NONE',  ( 0.000000000000000000, 0.000000000000000000, 3.000000000000000000 ) ) ;
#234 = CIRCLE ( 'NONE', #203, 5.000000000000000000 ) ;
#235 = COORDINATED_UNIVERSAL_TIME_OFFSET ( 1, 0, .AHEAD. ) ;
#236 = PERSON_AND_ORGANIZATION ( #253, #6 ) ;
#237 = PERSON_AND_ORGANIZATION ( #253, #6 ) ;
#238 = AXIS2_PLACEMENT_3D ( 'NONE', #149, #148, #230 ) ;
#239 = APPROVAL_PERSON_ORGANIZATION ( #24, #80, #177 ) ;
#240 = DIRECTION ( 'NONE',  ( 1.000000000000000000, 0.000000000000000000, 0.000000000000000000 ) ) ;
#241 = CC_DESIGN_PERSON_AND_ORGANIZATION_ASSIGNMENT ( #178, #87, ( #48 ) ) ;
#242 = VECTOR ( 'NONE', #25, 1000.000000000000000 ) ;
#243 = VERTEX_POINT ( 'NONE', #195 ) ;
#244 = VERTEX_POINT ( 'NONE', #85 ) ;
#245 = VERTEX_POINT ( 'NONE', #46 ) ;
#246 = ORIENTED_EDGE ( 'NONE', *, *, #196, .T. ) ;
#247 = EDGE_CURVE ( 'NONE', #28, #244, #158, .T. ) ;
#248 = LINE ( 'NONE', #75, #98 ) ;
#249 = CARTESIAN_POINT ( 'NONE',  ( 0.000000000000000000, 0.000000000000000000, 0.000000000000000000 ) ) ;
#250 = PRODUCT_DEFINITION_FORMATION_WITH_SPECIFIED_SOURCE ( 'LIBOVOLNÝ', '', #211, .NOT_KNOWN. ) ;
#251 = CYLINDRICAL_SURFACE ( 'NONE', #162, 5.000000000000000000 ) ;
#252 = CC_DESIGN_PERSON_AND_ORGANIZATION_ASSIGNMENT ( #41, #219, ( #211 ) ) ;
#253 = PERSON ( 'NEURÈENÝ', 'NEURÈENÝ', 'NEURÈENÝ', ('NEURÈENÝ'), ('NEURÈENÝ'), ('NEURÈENÝ') ) ;
#254 = CARTESIAN_POINT ( 'NONE',  ( 5.000000000000000000, 6.123233995736766282E-16, 3.000000000000000000 ) ) ;
#255 = PLANE ( 'NONE',  #238 ) ;
ENDSEC;
END-ISO-10303-21;
