ISO-10303-21;
HEADER;
FILE_DESCRIPTION (( 'STEP AP203' ),
    '1' );
FILE_NAME ('15eb.STEP',
    '2023-01-31T14:31:00',
    ( '' ),
    ( '' ),
    'SwSTEP 2.0',
    'SolidWorks 2019',
    '' );
FILE_SCHEMA (( 'CONFIG_CONTROL_DESIGN' ));
ENDSEC;

DATA;
#1 = DATE_AND_TIME ( #45, #239 ) ;
#2 = EDGE_LOOP ( 'NONE', ( #243, #104 ) ) ;
#3 = ORIENTED_EDGE ( 'NONE', *, *, #68, .F. ) ;
#4 = EDGE_LOOP ( 'NONE', ( #217, #169, #181, #33 ) ) ;
#5 = CIRCLE ( 'NONE', #180, 0.5000000000000000000 ) ;
#6 = FACE_OUTER_BOUND ( 'NONE', #2, .T. ) ;
#7 = ORIENTED_EDGE ( 'NONE', *, *, #75, .F. ) ;
#8 = CC_DESIGN_PERSON_AND_ORGANIZATION_ASSIGNMENT ( #236, #234, ( #38 ) ) ;
#9 = ORIENTED_EDGE ( 'NONE', *, *, #193, .F. ) ;
#10 = CARTESIAN_POINT ( 'NONE',  ( 0.000000000000000000, 0.000000000000000000, 1.199999999999999956 ) ) ;
#11 = AXIS2_PLACEMENT_3D ( 'NONE', #95, #77, #107 ) ;
#12 = EDGE_CURVE ( 'NONE', #83, #232, #113, .T. ) ;
#13 = DIRECTION ( 'NONE',  ( 1.000000000000000000, 0.000000000000000000, 0.000000000000000000 ) ) ;
#14 = DIRECTION ( 'NONE',  ( -1.000000000000000000, 0.000000000000000000, 0.000000000000000000 ) ) ;
#15 = VECTOR ( 'NONE', #245, 1000.000000000000000 ) ;
#16 = DIRECTION ( 'NONE',  ( 1.000000000000000000, 0.000000000000000000, 0.000000000000000000 ) ) ;
#17 = DIRECTION ( 'NONE',  ( 1.000000000000000000, 0.000000000000000000, 0.000000000000000000 ) ) ;
#18 = AXIS2_PLACEMENT_3D ( 'NONE', #108, #128, #146 ) ;
#19 = SECURITY_CLASSIFICATION ( '', '', #188 ) ;
#20 = APPROVAL ( #112, 'NEURÈENÝ' ) ;
#21 = APPROVAL_ROLE ( '' ) ;
#22 = ORIENTED_EDGE ( 'NONE', *, *, #84, .T. ) ;
#23 = CALENDAR_DATE ( 2023, 31, 1 ) ;
#24 = VERTEX_POINT ( 'NONE', #156 ) ;
#25 = CC_DESIGN_SECURITY_CLASSIFICATION ( #19, ( #60 ) ) ;
#26 = APPROVAL_DATE_TIME ( #152, #106 ) ;
#27 = CARTESIAN_POINT ( 'NONE',  ( 0.5000000000000000000, 6.123233995736766036E-17, 100.0000000000000000 ) ) ;
#28 = LOCAL_TIME ( 15, 31, 0.000000000000000000, #255 ) ;
#29 = ADVANCED_FACE ( 'NONE', ( #177, #6 ), #124, .T. ) ;
#30 = DIRECTION ( 'NONE',  ( 0.000000000000000000, 0.000000000000000000, 1.000000000000000000 ) ) ;
#31 = CARTESIAN_POINT ( 'NONE',  ( 0.000000000000000000, 0.000000000000000000, 0.000000000000000000 ) ) ;
#32 = ORIENTED_EDGE ( 'NONE', *, *, #187, .T. ) ;
#33 = ORIENTED_EDGE ( 'NONE', *, *, #193, .T. ) ;
#34 = AXIS2_PLACEMENT_3D ( 'NONE', #49, #215, #219 ) ;
#35 = DIRECTION ( 'NONE',  ( 1.000000000000000000, 0.000000000000000000, 0.000000000000000000 ) ) ;
#36 = CARTESIAN_POINT ( 'NONE',  ( 0.000000000000000000, 0.000000000000000000, 1.199999999999999956 ) ) ;
#37 =( LENGTH_UNIT ( ) NAMED_UNIT ( * ) SI_UNIT ( .MILLI., .METRE. ) );
#38 = PRODUCT_DEFINITION ( 'NEZNÁMÝ', '', #60, #183 ) ;
#39 = PERSON_AND_ORGANIZATION ( #170, #148 ) ;
#40 = EDGE_LOOP ( 'NONE', ( #48, #7 ) ) ;
#41 = AXIS2_PLACEMENT_3D ( 'NONE', #164, #111, #130 ) ;
#42 = CC_DESIGN_APPROVAL ( #65, ( #60 ) ) ;
#43 = APPROVAL_DATE_TIME ( #59, #65 ) ;
#44 = PERSON_AND_ORGANIZATION ( #170, #148 ) ;
#45 = CALENDAR_DATE ( 2023, 31, 1 ) ;
#46 = LOCAL_TIME ( 15, 31, 0.000000000000000000, #131 ) ;
#47 = ORIENTED_EDGE ( 'NONE', *, *, #160, .F. ) ;
#48 = ORIENTED_EDGE ( 'NONE', *, *, #12, .F. ) ;
#49 = CARTESIAN_POINT ( 'NONE',  ( 0.000000000000000000, 0.000000000000000000, 100.0000000000000000 ) ) ;
#50 = APPLICATION_CONTEXT ( 'configuration controlled 3d designs of mechanical parts and assemblies' ) ;
#51 = ORIENTED_EDGE ( 'NONE', *, *, #187, .F. ) ;
#52 = CYLINDRICAL_SURFACE ( 'NONE', #250, 1.250000000000000000 ) ;
#53 = FACE_OUTER_BOUND ( 'NONE', #102, .T. ) ;
#54 = CIRCLE ( 'NONE', #18, 0.5000000000000000000 ) ;
#55 = CC_DESIGN_DATE_AND_TIME_ASSIGNMENT ( #189, #137, ( #38 ) ) ;
#56 = CARTESIAN_POINT ( 'NONE',  ( 0.000000000000000000, 0.000000000000000000, 100.0000000000000000 ) ) ;
#57 = MECHANICAL_CONTEXT ( 'NONE', #50, 'mechanical' ) ;
#58 = CARTESIAN_POINT ( 'NONE',  ( 1.250000000000000000, 1.530808498934191571E-16, 1.199999999999999956 ) ) ;
#59 = DATE_AND_TIME ( #151, #114 ) ;
#60 = PRODUCT_DEFINITION_FORMATION_WITH_SPECIFIED_SOURCE ( 'LIBOVOLNÝ', '', #229, .NOT_KNOWN. ) ;
#61 = COORDINATED_UNIVERSAL_TIME_OFFSET ( 1, 0, .AHEAD. ) ;
#62 = COORDINATED_UNIVERSAL_TIME_OFFSET ( 1, 0, .AHEAD. ) ;
#63 = VECTOR ( 'NONE', #225, 1000.000000000000000 ) ;
#64 = PLANE ( 'NONE',  #34 ) ;
#65 = APPROVAL ( #207, 'NEURÈENÝ' ) ;
#66 = FACE_OUTER_BOUND ( 'NONE', #105, .T. ) ;
#67 = ORIENTED_EDGE ( 'NONE', *, *, #160, .T. ) ;
#68 = EDGE_CURVE ( 'NONE', #139, #85, #120, .T. ) ;
#69 = LINE ( 'NONE', #27, #92 ) ;
#70 = DIRECTION ( 'NONE',  ( 0.000000000000000000, 0.000000000000000000, 1.000000000000000000 ) ) ;
#71 = CYLINDRICAL_SURFACE ( 'NONE', #11, 0.5000000000000000000 ) ;
#72 =( GEOMETRIC_REPRESENTATION_CONTEXT ( 3 ) GLOBAL_UNCERTAINTY_ASSIGNED_CONTEXT ( ( #254 ) ) GLOBAL_UNIT_ASSIGNED_CONTEXT ( ( #37, #144, #184 ) ) REPRESENTATION_CONTEXT ( 'NONE', 'WORKASPACE' ) );
#73 = DIRECTION ( 'NONE',  ( -0.000000000000000000, -0.000000000000000000, -1.000000000000000000 ) ) ;
#74 = AXIS2_PLACEMENT_3D ( 'NONE', #93, #163, #35 ) ;
#75 = EDGE_CURVE ( 'NONE', #232, #83, #211, .T. ) ;
#76 = ADVANCED_FACE ( 'NONE', ( #66 ), #64, .T. ) ;
#77 = DIRECTION ( 'NONE',  ( -0.000000000000000000, -0.000000000000000000, -1.000000000000000000 ) ) ;
#78 = APPROVAL_PERSON_ORGANIZATION ( #171, #20, #21 ) ;
#79 = APPROVAL_ROLE ( '' ) ;
#80 = ORIENTED_EDGE ( 'NONE', *, *, #75, .T. ) ;
#81 = ADVANCED_FACE ( 'NONE', ( #53 ), #244, .F. ) ;
#82 = PERSON_AND_ORGANIZATION ( #170, #148 ) ;
#83 = VERTEX_POINT ( 'NONE', #89 ) ;
#84 = EDGE_CURVE ( 'NONE', #143, #232, #69, .T. ) ;
#85 = VERTEX_POINT ( 'NONE', #176 ) ;
#86 = VECTOR ( 'NONE', #200, 1000.000000000000000 ) ;
#87 = DIRECTION ( 'NONE',  ( 1.000000000000000000, 0.000000000000000000, -0.000000000000000000 ) ) ;
#88 = CARTESIAN_POINT ( 'NONE',  ( 0.000000000000000000, 0.000000000000000000, 1.199999999999999956 ) ) ;
#89 = CARTESIAN_POINT ( 'NONE',  ( -0.5000000000000000000, 0.000000000000000000, 1.199999999999999956 ) ) ;
#90 = CARTESIAN_POINT ( 'NONE',  ( 0.000000000000000000, 0.000000000000000000, 100.0000000000000000 ) ) ;
#91 = CARTESIAN_POINT ( 'NONE',  ( 0.000000000000000000, 0.000000000000000000, 1.199999999999999956 ) ) ;
#92 = VECTOR ( 'NONE', #216, 1000.000000000000000 ) ;
#93 = CARTESIAN_POINT ( 'NONE',  ( 0.000000000000000000, 0.000000000000000000, 0.000000000000000000 ) ) ;
#94 = DIRECTION ( 'NONE',  ( -0.000000000000000000, -0.000000000000000000, -1.000000000000000000 ) ) ;
#95 = CARTESIAN_POINT ( 'NONE',  ( 0.000000000000000000, 0.000000000000000000, 100.0000000000000000 ) ) ;
#96 = AXIS2_PLACEMENT_3D ( 'NONE', #31, #140, #158 ) ;
#97 = AXIS2_PLACEMENT_3D ( 'NONE', #91, #204, #13 ) ;
#98 = APPROVAL_DATE_TIME ( #1, #20 ) ;
#99 = PERSON_AND_ORGANIZATION_ROLE ( 'design_owner' ) ;
#100 = DATE_AND_TIME ( #23, #46 ) ;
#101 = COORDINATED_UNIVERSAL_TIME_OFFSET ( 1, 0, .AHEAD. ) ;
#102 = EDGE_LOOP ( 'NONE', ( #9, #157 ) ) ;
#103 = VERTEX_POINT ( 'NONE', #195 ) ;
#104 = ORIENTED_EDGE ( 'NONE', *, *, #115, .T. ) ;
#105 = EDGE_LOOP ( 'NONE', ( #67, #32 ) ) ;
#106 = APPROVAL ( #149, 'NEURÈENÝ' ) ;
#107 = DIRECTION ( 'NONE',  ( -1.000000000000000000, 0.000000000000000000, 0.000000000000000000 ) ) ;
#108 = CARTESIAN_POINT ( 'NONE',  ( 0.000000000000000000, 0.000000000000000000, 100.0000000000000000 ) ) ;
#109 = PRODUCT_RELATED_PRODUCT_CATEGORY ( 'detail', '', ( #229 ) ) ;
#110 = CYLINDRICAL_SURFACE ( 'NONE', #238, 1.250000000000000000 ) ;
#111 = DIRECTION ( 'NONE',  ( 0.000000000000000000, 0.000000000000000000, 1.000000000000000000 ) ) ;
#112 = APPROVAL_STATUS ( 'not_yet_approved' ) ;
#113 = CIRCLE ( 'NONE', #233, 0.5000000000000000000 ) ;
#114 = LOCAL_TIME ( 15, 31, 0.000000000000000000, #62 ) ;
#115 = EDGE_CURVE ( 'NONE', #103, #139, #190, .T. ) ;
#116 = PERSON_AND_ORGANIZATION_ROLE ( 'design_supplier' ) ;
#117 = CC_DESIGN_PERSON_AND_ORGANIZATION_ASSIGNMENT ( #213, #116, ( #60 ) ) ;
#118 = CIRCLE ( 'NONE', #126, 1.250000000000000000 ) ;
#119 = ADVANCED_BREP_SHAPE_REPRESENTATION ( '15eb', ( #231, #74 ), #72 ) ;
#120 = LINE ( 'NONE', #194, #15 ) ;
#121 = CARTESIAN_POINT ( 'NONE',  ( 0.000000000000000000, 0.000000000000000000, 1.199999999999999956 ) ) ;
#122 = CIRCLE ( 'NONE', #41, 1.250000000000000000 ) ;
#123 = ADVANCED_FACE ( 'NONE', ( #218 ), #52, .T. ) ;
#124 = PLANE ( 'NONE',  #221 ) ;
#125 = CARTESIAN_POINT ( 'NONE',  ( 0.000000000000000000, 0.000000000000000000, 1.199999999999999956 ) ) ;
#126 = AXIS2_PLACEMENT_3D ( 'NONE', #251, #186, #17 ) ;
#127 = CARTESIAN_POINT ( 'NONE',  ( -1.250000000000000000, 0.000000000000000000, 1.199999999999999956 ) ) ;
#128 = DIRECTION ( 'NONE',  ( 0.000000000000000000, 0.000000000000000000, 1.000000000000000000 ) ) ;
#129 = DIRECTION ( 'NONE',  ( -1.000000000000000000, 0.000000000000000000, 0.000000000000000000 ) ) ;
#130 = DIRECTION ( 'NONE',  ( 1.000000000000000000, 0.000000000000000000, 0.000000000000000000 ) ) ;
#131 = COORDINATED_UNIVERSAL_TIME_OFFSET ( 1, 0, .AHEAD. ) ;
#132 = CALENDAR_DATE ( 2023, 31, 1 ) ;
#133 = AXIS2_PLACEMENT_3D ( 'NONE', #90, #94, #206 ) ;
#134 = PERSON_AND_ORGANIZATION ( #170, #148 ) ;
#135 = APPLICATION_CONTEXT ( 'configuration controlled 3d designs of mechanical parts and assemblies' ) ;
#136 = CC_DESIGN_PERSON_AND_ORGANIZATION_ASSIGNMENT ( #191, #173, ( #19 ) ) ;
#137 = DATE_TIME_ROLE ( 'creation_date' ) ;
#138 = AXIS2_PLACEMENT_3D ( 'NONE', #242, #70, #240 ) ;
#139 = VERTEX_POINT ( 'NONE', #127 ) ;
#140 = DIRECTION ( 'NONE',  ( 0.000000000000000000, 0.000000000000000000, 1.000000000000000000 ) ) ;
#141 = DIRECTION ( 'NONE',  ( 0.000000000000000000, 0.000000000000000000, 1.000000000000000000 ) ) ;
#142 = DIRECTION ( 'NONE',  ( 1.000000000000000000, 0.000000000000000000, 0.000000000000000000 ) ) ;
#143 = VERTEX_POINT ( 'NONE', #202 ) ;
#144 =( NAMED_UNIT ( * ) PLANE_ANGLE_UNIT ( ) SI_UNIT ( $, .RADIAN. ) );
#145 = DIRECTION ( 'NONE',  ( 0.000000000000000000, 0.000000000000000000, 1.000000000000000000 ) ) ;
#146 = DIRECTION ( 'NONE',  ( 1.000000000000000000, 0.000000000000000000, 0.000000000000000000 ) ) ;
#147 = LINE ( 'NONE', #226, #63 ) ;
#148 = ORGANIZATION ( 'NEURÈENÝ', 'NEURÈENÝ', '' ) ;
#149 = APPROVAL_STATUS ( 'not_yet_approved' ) ;
#150 = ADVANCED_FACE ( 'NONE', ( #182 ), #246, .T. ) ;
#151 = CALENDAR_DATE ( 2023, 31, 1 ) ;
#152 = DATE_AND_TIME ( #132, #28 ) ;
#153 = ADVANCED_FACE ( 'NONE', ( #248 ), #71, .T. ) ;
#154 = DATE_TIME_ROLE ( 'classification_date' ) ;
#155 = ORIENTED_EDGE ( 'NONE', *, *, #247, .T. ) ;
#156 = CARTESIAN_POINT ( 'NONE',  ( 1.250000000000000000, 1.530808498934191571E-16, 0.000000000000000000 ) ) ;
#157 = ORIENTED_EDGE ( 'NONE', *, *, #247, .F. ) ;
#158 = DIRECTION ( 'NONE',  ( 1.000000000000000000, 0.000000000000000000, -0.000000000000000000 ) ) ;
#159 = ORIENTED_EDGE ( 'NONE', *, *, #178, .T. ) ;
#160 = EDGE_CURVE ( 'NONE', #237, #143, #54, .T. ) ;
#161 = DIRECTION ( 'NONE',  ( 0.000000000000000000, 0.000000000000000000, 1.000000000000000000 ) ) ;
#162 = CC_DESIGN_APPROVAL ( #106, ( #38 ) ) ;
#163 = DIRECTION ( 'NONE',  ( 0.000000000000000000, 0.000000000000000000, 1.000000000000000000 ) ) ;
#164 = CARTESIAN_POINT ( 'NONE',  ( 0.000000000000000000, 0.000000000000000000, 0.000000000000000000 ) ) ;
#165 = CARTESIAN_POINT ( 'NONE',  ( -0.5000000000000000000, 0.000000000000000000, 100.0000000000000000 ) ) ;
#166 = CIRCLE ( 'NONE', #97, 1.250000000000000000 ) ;
#167 = ORIENTED_EDGE ( 'NONE', *, *, #198, .T. ) ;
#168 = APPLICATION_PROTOCOL_DEFINITION ( 'international standard', 'config_control_design', 1994, #135 ) ;
#169 = ORIENTED_EDGE ( 'NONE', *, *, #227, .F. ) ;
#170 = PERSON ( 'NEURÈENÝ', 'NEURÈENÝ', 'NEURÈENÝ', ('NEURÈENÝ'), ('NEURÈENÝ'), ('NEURÈENÝ') ) ;
#171 = PERSON_AND_ORGANIZATION ( #170, #148 ) ;
#172 = ORIENTED_EDGE ( 'NONE', *, *, #115, .F. ) ;
#173 = PERSON_AND_ORGANIZATION_ROLE ( 'classification_officer' ) ;
#174 = EDGE_LOOP ( 'NONE', ( #208, #47, #159, #192 ) ) ;
#175 = EDGE_LOOP ( 'NONE', ( #172, #167, #155, #3 ) ) ;
#176 = CARTESIAN_POINT ( 'NONE',  ( -1.250000000000000000, 0.000000000000000000, 0.000000000000000000 ) ) ;
#177 = FACE_BOUND ( 'NONE', #40, .T. ) ;
#178 = EDGE_CURVE ( 'NONE', #237, #83, #147, .T. ) ;
#179 = EDGE_LOOP ( 'NONE', ( #51, #22, #80, #197 ) ) ;
#180 = AXIS2_PLACEMENT_3D ( 'NONE', #56, #145, #16 ) ;
#181 = ORIENTED_EDGE ( 'NONE', *, *, #68, .T. ) ;
#182 = FACE_OUTER_BOUND ( 'NONE', #174, .T. ) ;
#183 = DESIGN_CONTEXT ( 'detailed design', #135, 'design' ) ;
#184 =( NAMED_UNIT ( * ) SI_UNIT ( $, .STERADIAN. ) SOLID_ANGLE_UNIT ( ) );
#185 = DIRECTION ( 'NONE',  ( -0.000000000000000000, -0.000000000000000000, -1.000000000000000000 ) ) ;
#186 = DIRECTION ( 'NONE',  ( 0.000000000000000000, 0.000000000000000000, 1.000000000000000000 ) ) ;
#187 = EDGE_CURVE ( 'NONE', #143, #237, #5, .T. ) ;
#188 = SECURITY_CLASSIFICATION_LEVEL ( 'unclassified' ) ;
#189 = DATE_AND_TIME ( #230, #241 ) ;
#190 = CIRCLE ( 'NONE', #224, 1.250000000000000000 ) ;
#191 = PERSON_AND_ORGANIZATION ( #170, #148 ) ;
#192 = ORIENTED_EDGE ( 'NONE', *, *, #12, .T. ) ;
#193 = EDGE_CURVE ( 'NONE', #85, #24, #122, .T. ) ;
#194 = CARTESIAN_POINT ( 'NONE',  ( -1.250000000000000000, 0.000000000000000000, 1.199999999999999956 ) ) ;
#195 = CARTESIAN_POINT ( 'NONE',  ( 1.250000000000000000, 1.530808498934191571E-16, 1.199999999999999956 ) ) ;
#196 = APPROVAL_PERSON_ORGANIZATION ( #82, #65, #210 ) ;
#197 = ORIENTED_EDGE ( 'NONE', *, *, #178, .F. ) ;
#198 = EDGE_CURVE ( 'NONE', #103, #24, #220, .T. ) ;
#199 = DIRECTION ( 'NONE',  ( 1.000000000000000000, 0.000000000000000000, 0.000000000000000000 ) ) ;
#200 = DIRECTION ( 'NONE',  ( -0.000000000000000000, -0.000000000000000000, -1.000000000000000000 ) ) ;
#201 = ADVANCED_FACE ( 'NONE', ( #253 ), #110, .T. ) ;
#202 = CARTESIAN_POINT ( 'NONE',  ( 0.5000000000000000000, 6.123233995736766036E-17, 100.0000000000000000 ) ) ;
#203 = APPLICATION_PROTOCOL_DEFINITION ( 'international standard', 'config_control_design', 1994, #50 ) ;
#204 = DIRECTION ( 'NONE',  ( 0.000000000000000000, 0.000000000000000000, 1.000000000000000000 ) ) ;
#205 = CC_DESIGN_PERSON_AND_ORGANIZATION_ASSIGNMENT ( #39, #212, ( #60 ) ) ;
#206 = DIRECTION ( 'NONE',  ( -1.000000000000000000, 0.000000000000000000, 0.000000000000000000 ) ) ;
#207 = APPROVAL_STATUS ( 'not_yet_approved' ) ;
#208 = ORIENTED_EDGE ( 'NONE', *, *, #84, .F. ) ;
#209 = APPROVAL_PERSON_ORGANIZATION ( #134, #106, #79 ) ;
#210 = APPROVAL_ROLE ( '' ) ;
#211 = CIRCLE ( 'NONE', #138, 0.5000000000000000000 ) ;
#212 = PERSON_AND_ORGANIZATION_ROLE ( 'creator' ) ;
#213 = PERSON_AND_ORGANIZATION ( #170, #148 ) ;
#214 = CC_DESIGN_DATE_AND_TIME_ASSIGNMENT ( #100, #154, ( #19 ) ) ;
#215 = DIRECTION ( 'NONE',  ( 0.000000000000000000, 0.000000000000000000, 1.000000000000000000 ) ) ;
#216 = DIRECTION ( 'NONE',  ( -0.000000000000000000, -0.000000000000000000, -1.000000000000000000 ) ) ;
#217 = ORIENTED_EDGE ( 'NONE', *, *, #198, .F. ) ;
#218 = FACE_OUTER_BOUND ( 'NONE', #4, .T. ) ;
#219 = DIRECTION ( 'NONE',  ( 1.000000000000000000, 0.000000000000000000, -0.000000000000000000 ) ) ;
#220 = LINE ( 'NONE', #58, #86 ) ;
#221 = AXIS2_PLACEMENT_3D ( 'NONE', #10, #161, #87 ) ;
#222 = CC_DESIGN_PERSON_AND_ORGANIZATION_ASSIGNMENT ( #44, #99, ( #229 ) ) ;
#223 = PRODUCT_DEFINITION_SHAPE ( 'NONE', 'NONE',  #38 ) ;
#224 = AXIS2_PLACEMENT_3D ( 'NONE', #121, #30, #142 ) ;
#225 = DIRECTION ( 'NONE',  ( -0.000000000000000000, -0.000000000000000000, -1.000000000000000000 ) ) ;
#226 = CARTESIAN_POINT ( 'NONE',  ( -0.5000000000000000000, 0.000000000000000000, 100.0000000000000000 ) ) ;
#227 = EDGE_CURVE ( 'NONE', #139, #103, #166, .T. ) ;
#228 = CC_DESIGN_APPROVAL ( #20, ( #19 ) ) ;
#229 = PRODUCT ( '15eb', '15eb', '', ( #57 ) ) ;
#230 = CALENDAR_DATE ( 2023, 31, 1 ) ;
#231 = MANIFOLD_SOLID_BREP ( 'Pøidat vysunutím3', #249 ) ;
#232 = VERTEX_POINT ( 'NONE', #252 ) ;
#233 = AXIS2_PLACEMENT_3D ( 'NONE', #88, #141, #199 ) ;
#234 = PERSON_AND_ORGANIZATION_ROLE ( 'creator' ) ;
#235 = SHAPE_DEFINITION_REPRESENTATION ( #223, #119 ) ;
#236 = PERSON_AND_ORGANIZATION ( #170, #148 ) ;
#237 = VERTEX_POINT ( 'NONE', #165 ) ;
#238 = AXIS2_PLACEMENT_3D ( 'NONE', #36, #73, #14 ) ;
#239 = LOCAL_TIME ( 15, 31, 0.000000000000000000, #101 ) ;
#240 = DIRECTION ( 'NONE',  ( 1.000000000000000000, 0.000000000000000000, 0.000000000000000000 ) ) ;
#241 = LOCAL_TIME ( 15, 31, 0.000000000000000000, #61 ) ;
#242 = CARTESIAN_POINT ( 'NONE',  ( 0.000000000000000000, 0.000000000000000000, 1.199999999999999956 ) ) ;
#243 = ORIENTED_EDGE ( 'NONE', *, *, #227, .T. ) ;
#244 = PLANE ( 'NONE',  #96 ) ;
#245 = DIRECTION ( 'NONE',  ( -0.000000000000000000, -0.000000000000000000, -1.000000000000000000 ) ) ;
#246 = CYLINDRICAL_SURFACE ( 'NONE', #133, 0.5000000000000000000 ) ;
#247 = EDGE_CURVE ( 'NONE', #24, #85, #118, .T. ) ;
#248 = FACE_OUTER_BOUND ( 'NONE', #179, .T. ) ;
#249 = CLOSED_SHELL ( 'NONE', ( #153, #201, #123, #29, #81, #150, #76 ) ) ;
#250 = AXIS2_PLACEMENT_3D ( 'NONE', #125, #185, #129 ) ;
#251 = CARTESIAN_POINT ( 'NONE',  ( 0.000000000000000000, 0.000000000000000000, 0.000000000000000000 ) ) ;
#252 = CARTESIAN_POINT ( 'NONE',  ( 0.5000000000000000000, 6.123233995736766036E-17, 1.199999999999999956 ) ) ;
#253 = FACE_OUTER_BOUND ( 'NONE', #175, .T. ) ;
#254 = UNCERTAINTY_MEASURE_WITH_UNIT (LENGTH_MEASURE( 1.000000000000000082E-05 ), #37, 'distance_accuracy_value', 'NONE');
#255 = COORDINATED_UNIVERSAL_TIME_OFFSET ( 1, 0, .AHEAD. ) ;
ENDSEC;
END-ISO-10303-21;
