ISO-10303-21;
HEADER;
FILE_DESCRIPTION (( 'STEP AP203' ),
    '1' );
FILE_NAME ('1c5b.STEP',
    '2023-01-31T14:48:04',
    ( '' ),
    ( '' ),
    'SwSTEP 2.0',
    'SolidWorks 2019',
    '' );
FILE_SCHEMA (( 'CONFIG_CONTROL_DESIGN' ));
ENDSEC;

DATA;
#1 = PERSON_AND_ORGANIZATION ( #14, #201 ) ;
#2 = APPROVAL ( #133, 'NEURÈENÝ' ) ;
#3 = ORIENTED_EDGE ( 'NONE', *, *, #65, .F. ) ;
#4 = SECURITY_CLASSIFICATION ( '', '', #51 ) ;
#5 = ORIENTED_EDGE ( 'NONE', *, *, #152, .F. ) ;
#6 = EDGE_CURVE ( 'NONE', #184, #181, #162, .T. ) ;
#7 = CARTESIAN_POINT ( 'NONE',  ( 0.000000000000000000, 0.000000000000000000, 100.0000000000000000 ) ) ;
#8 = CARTESIAN_POINT ( 'NONE',  ( 0.000000000000000000, 0.000000000000000000, 1.199999999999999956 ) ) ;
#9 = CIRCLE ( 'NONE', #195, 1.250000000000000000 ) ;
#10 = DIRECTION ( 'NONE',  ( -1.000000000000000000, 0.000000000000000000, 0.000000000000000000 ) ) ;
#11 = PRODUCT_DEFINITION ( 'NEZNÁMÝ', '', #103, #92 ) ;
#12 = AXIS2_PLACEMENT_3D ( 'NONE', #61, #144, #147 ) ;
#13 = CARTESIAN_POINT ( 'NONE',  ( 0.5000000000000000000, 6.123233995736766036E-17, 100.0000000000000000 ) ) ;
#14 = PERSON ( 'NEURÈENÝ', 'NEURÈENÝ', 'NEURÈENÝ', ('NEURÈENÝ'), ('NEURÈENÝ'), ('NEURÈENÝ') ) ;
#15 = ADVANCED_FACE ( 'NONE', ( #207 ), #117, .T. ) ;
#16 = DIRECTION ( 'NONE',  ( 1.000000000000000000, 0.000000000000000000, 0.000000000000000000 ) ) ;
#17 =( NAMED_UNIT ( * ) SI_UNIT ( $, .STERADIAN. ) SOLID_ANGLE_UNIT ( ) );
#18 = APPLICATION_PROTOCOL_DEFINITION ( 'international standard', 'config_control_design', 1994, #226 ) ;
#19 = DIRECTION ( 'NONE',  ( 0.000000000000000000, 0.000000000000000000, 1.000000000000000000 ) ) ;
#20 = DATE_AND_TIME ( #131, #116 ) ;
#21 = CALENDAR_DATE ( 2023, 31, 1 ) ;
#22 = AXIS2_PLACEMENT_3D ( 'NONE', #7, #76, #35 ) ;
#23 = CARTESIAN_POINT ( 'NONE',  ( 0.5000000000000000000, 6.123233995736766036E-17, 100.0000000000000000 ) ) ;
#24 = ORIENTED_EDGE ( 'NONE', *, *, #6, .F. ) ;
#25 = CYLINDRICAL_SURFACE ( 'NONE', #241, 0.5000000000000000000 ) ;
#26 = AXIS2_PLACEMENT_3D ( 'NONE', #81, #247, #228 ) ;
#27 = CC_DESIGN_PERSON_AND_ORGANIZATION_ASSIGNMENT ( #73, #254, ( #103 ) ) ;
#28 = CARTESIAN_POINT ( 'NONE',  ( 0.000000000000000000, 0.000000000000000000, 0.000000000000000000 ) ) ;
#29 = CARTESIAN_POINT ( 'NONE',  ( 1.250000000000000000, 1.530808498934191571E-16, 0.000000000000000000 ) ) ;
#30 = DIRECTION ( 'NONE',  ( 1.000000000000000000, 0.000000000000000000, 0.000000000000000000 ) ) ;
#31 = AXIS2_PLACEMENT_3D ( 'NONE', #227, #78, #39 ) ;
#32 = COORDINATED_UNIVERSAL_TIME_OFFSET ( 1, 0, .AHEAD. ) ;
#33 = LOCAL_TIME ( 15, 48, 4.000000000000000000, #156 ) ;
#34 = CARTESIAN_POINT ( 'NONE',  ( 0.000000000000000000, 0.000000000000000000, 0.000000000000000000 ) ) ;
#35 = DIRECTION ( 'NONE',  ( -1.000000000000000000, 0.000000000000000000, 0.000000000000000000 ) ) ;
#36 = DIRECTION ( 'NONE',  ( -0.000000000000000000, -0.000000000000000000, -1.000000000000000000 ) ) ;
#37 = DIRECTION ( 'NONE',  ( 0.000000000000000000, 0.000000000000000000, 1.000000000000000000 ) ) ;
#38 = PRODUCT_RELATED_PRODUCT_CATEGORY ( 'detail', '', ( #96 ) ) ;
#39 = DIRECTION ( 'NONE',  ( 1.000000000000000000, 0.000000000000000000, 0.000000000000000000 ) ) ;
#40 = CIRCLE ( 'NONE', #79, 1.250000000000000000 ) ;
#41 = FACE_OUTER_BOUND ( 'NONE', #216, .T. ) ;
#42 = FACE_BOUND ( 'NONE', #104, .T. ) ;
#43 = APPROVAL ( #163, 'NEURÈENÝ' ) ;
#44 = LOCAL_TIME ( 15, 48, 4.000000000000000000, #214 ) ;
#45 = FACE_OUTER_BOUND ( 'NONE', #48, .T. ) ;
#46 = ORIENTED_EDGE ( 'NONE', *, *, #179, .F. ) ;
#47 = SHAPE_DEFINITION_REPRESENTATION ( #245, #148 ) ;
#48 = EDGE_LOOP ( 'NONE', ( #225, #180 ) ) ;
#49 = COORDINATED_UNIVERSAL_TIME_OFFSET ( 1, 0, .AHEAD. ) ;
#50 = AXIS2_PLACEMENT_3D ( 'NONE', #169, #72, #118 ) ;
#51 = SECURITY_CLASSIFICATION_LEVEL ( 'unclassified' ) ;
#52 = VERTEX_POINT ( 'NONE', #91 ) ;
#53 = VERTEX_POINT ( 'NONE', #238 ) ;
#54 = PLANE ( 'NONE',  #50 ) ;
#55 = CIRCLE ( 'NONE', #218, 0.5000000000000000000 ) ;
#56 = PERSON_AND_ORGANIZATION_ROLE ( 'creator' ) ;
#57 = CARTESIAN_POINT ( 'NONE',  ( -0.5000000000000000000, 0.000000000000000000, 100.0000000000000000 ) ) ;
#58 = PLANE ( 'NONE',  #158 ) ;
#59 = CC_DESIGN_APPROVAL ( #2, ( #4 ) ) ;
#60 = ADVANCED_FACE ( 'NONE', ( #203 ), #54, .F. ) ;
#61 = CARTESIAN_POINT ( 'NONE',  ( 0.000000000000000000, 0.000000000000000000, 1.199999999999999956 ) ) ;
#62 = MECHANICAL_CONTEXT ( 'NONE', #213, 'mechanical' ) ;
#63 = FACE_OUTER_BOUND ( 'NONE', #168, .T. ) ;
#64 = PLANE ( 'NONE',  #149 ) ;
#65 = EDGE_CURVE ( 'NONE', #178, #141, #164, .T. ) ;
#66 = DATE_AND_TIME ( #194, #170 ) ;
#67 = DIRECTION ( 'NONE',  ( -1.000000000000000000, 0.000000000000000000, 0.000000000000000000 ) ) ;
#68 = APPLICATION_PROTOCOL_DEFINITION ( 'international standard', 'config_control_design', 1994, #213 ) ;
#69 = AXIS2_PLACEMENT_3D ( 'NONE', #34, #154, #105 ) ;
#70 = ORIENTED_EDGE ( 'NONE', *, *, #109, .F. ) ;
#71 = ORIENTED_EDGE ( 'NONE', *, *, #183, .T. ) ;
#72 = DIRECTION ( 'NONE',  ( 0.000000000000000000, 0.000000000000000000, 1.000000000000000000 ) ) ;
#73 = PERSON_AND_ORGANIZATION ( #14, #201 ) ;
#74 = AXIS2_PLACEMENT_3D ( 'NONE', #111, #153, #16 ) ;
#75 = ORIENTED_EDGE ( 'NONE', *, *, #183, .F. ) ;
#76 = DIRECTION ( 'NONE',  ( -0.000000000000000000, -0.000000000000000000, -1.000000000000000000 ) ) ;
#77 = CC_DESIGN_DATE_AND_TIME_ASSIGNMENT ( #90, #161, ( #11 ) ) ;
#78 = DIRECTION ( 'NONE',  ( 0.000000000000000000, 0.000000000000000000, 1.000000000000000000 ) ) ;
#79 = AXIS2_PLACEMENT_3D ( 'NONE', #8, #37, #173 ) ;
#80 = CC_DESIGN_APPROVAL ( #43, ( #103 ) ) ;
#81 = CARTESIAN_POINT ( 'NONE',  ( 0.000000000000000000, 0.000000000000000000, 1.199999999999999956 ) ) ;
#82 = DIRECTION ( 'NONE',  ( -0.000000000000000000, -0.000000000000000000, -1.000000000000000000 ) ) ;
#83 = EDGE_CURVE ( 'NONE', #236, #178, #55, .T. ) ;
#84 = CIRCLE ( 'NONE', #31, 1.250000000000000000 ) ;
#85 = CARTESIAN_POINT ( 'NONE',  ( -1.250000000000000000, 0.000000000000000000, 1.199999999999999956 ) ) ;
#86 = FACE_OUTER_BOUND ( 'NONE', #142, .T. ) ;
#87 = EDGE_CURVE ( 'NONE', #157, #141, #113, .T. ) ;
#88 = APPROVAL_STATUS ( 'not_yet_approved' ) ;
#89 = ORIENTED_EDGE ( 'NONE', *, *, #210, .F. ) ;
#90 = DATE_AND_TIME ( #121, #44 ) ;
#91 = CARTESIAN_POINT ( 'NONE',  ( -1.250000000000000000, 0.000000000000000000, 1.199999999999999956 ) ) ;
#92 = DESIGN_CONTEXT ( 'detailed design', #226, 'design' ) ;
#93 = DIRECTION ( 'NONE',  ( 1.000000000000000000, 0.000000000000000000, 0.000000000000000000 ) ) ;
#94 = VECTOR ( 'NONE', #171, 1000.000000000000000 ) ;
#95 = ORIENTED_EDGE ( 'NONE', *, *, #204, .F. ) ;
#96 = PRODUCT ( '1c5b', '1c5b', '', ( #62 ) ) ;
#97 = PERSON_AND_ORGANIZATION ( #14, #201 ) ;
#98 = CIRCLE ( 'NONE', #74, 1.250000000000000000 ) ;
#99 = LINE ( 'NONE', #85, #94 ) ;
#100 = CC_DESIGN_PERSON_AND_ORGANIZATION_ASSIGNMENT ( #108, #177, ( #4 ) ) ;
#101 = DIRECTION ( 'NONE',  ( 1.000000000000000000, 0.000000000000000000, 0.000000000000000000 ) ) ;
#102 = CARTESIAN_POINT ( 'NONE',  ( 0.000000000000000000, 0.000000000000000000, 1.199999999999999956 ) ) ;
#103 = PRODUCT_DEFINITION_FORMATION_WITH_SPECIFIED_SOURCE ( 'LIBOVOLNÝ', '', #96, .NOT_KNOWN. ) ;
#104 = EDGE_LOOP ( 'NONE', ( #198, #127 ) ) ;
#105 = DIRECTION ( 'NONE',  ( 1.000000000000000000, 0.000000000000000000, 0.000000000000000000 ) ) ;
#106 = CC_DESIGN_APPROVAL ( #223, ( #11 ) ) ;
#107 = CYLINDRICAL_SURFACE ( 'NONE', #224, 1.250000000000000000 ) ;
#108 = PERSON_AND_ORGANIZATION ( #14, #201 ) ;
#109 = EDGE_CURVE ( 'NONE', #236, #157, #120, .T. ) ;
#110 = ORIENTED_EDGE ( 'NONE', *, *, #179, .T. ) ;
#111 = CARTESIAN_POINT ( 'NONE',  ( 0.000000000000000000, 0.000000000000000000, 1.199999999999999956 ) ) ;
#112 = ORIENTED_EDGE ( 'NONE', *, *, #87, .T. ) ;
#113 = CIRCLE ( 'NONE', #26, 0.5000000000000000000 ) ;
#114 = APPROVAL_DATE_TIME ( #20, #43 ) ;
#115 = ORIENTED_EDGE ( 'NONE', *, *, #187, .T. ) ;
#116 = LOCAL_TIME ( 15, 48, 4.000000000000000000, #49 ) ;
#117 = CYLINDRICAL_SURFACE ( 'NONE', #22, 0.5000000000000000000 ) ;
#118 = DIRECTION ( 'NONE',  ( 1.000000000000000000, 0.000000000000000000, -0.000000000000000000 ) ) ;
#119 = APPROVAL_DATE_TIME ( #66, #223 ) ;
#120 = LINE ( 'NONE', #57, #206 ) ;
#121 = CALENDAR_DATE ( 2023, 31, 1 ) ;
#122 = CARTESIAN_POINT ( 'NONE',  ( 0.000000000000000000, 0.000000000000000000, 100.0000000000000000 ) ) ;
#123 = FACE_OUTER_BOUND ( 'NONE', #255, .T. ) ;
#124 = PERSON_AND_ORGANIZATION ( #14, #201 ) ;
#125 = ADVANCED_FACE ( 'NONE', ( #123 ), #211, .T. ) ;
#126 = CIRCLE ( 'NONE', #12, 0.5000000000000000000 ) ;
#127 = ORIENTED_EDGE ( 'NONE', *, *, #128, .F. ) ;
#128 = EDGE_CURVE ( 'NONE', #141, #157, #126, .T. ) ;
#129 = APPROVAL_PERSON_ORGANIZATION ( #235, #2, #199 ) ;
#130 = DIRECTION ( 'NONE',  ( 1.000000000000000000, 0.000000000000000000, -0.000000000000000000 ) ) ;
#131 = CALENDAR_DATE ( 2023, 31, 1 ) ;
#132 = EDGE_LOOP ( 'NONE', ( #75, #95 ) ) ;
#133 = APPROVAL_STATUS ( 'not_yet_approved' ) ;
#134 = ORIENTED_EDGE ( 'NONE', *, *, #6, .T. ) ;
#135 = UNCERTAINTY_MEASURE_WITH_UNIT (LENGTH_MEASURE( 1.000000000000000082E-05 ), #160, 'distance_accuracy_value', 'NONE');
#136 = CC_DESIGN_PERSON_AND_ORGANIZATION_ASSIGNMENT ( #197, #237, ( #103 ) ) ;
#137 = DATE_TIME_ROLE ( 'classification_date' ) ;
#138 = DIRECTION ( 'NONE',  ( 0.000000000000000000, 0.000000000000000000, 1.000000000000000000 ) ) ;
#139 = ORIENTED_EDGE ( 'NONE', *, *, #65, .T. ) ;
#140 = CC_DESIGN_DATE_AND_TIME_ASSIGNMENT ( #239, #137, ( #4 ) ) ;
#141 = VERTEX_POINT ( 'NONE', #209 ) ;
#142 = EDGE_LOOP ( 'NONE', ( #24, #89, #110, #71 ) ) ;
#143 = DIRECTION ( 'NONE',  ( -1.000000000000000000, 0.000000000000000000, 0.000000000000000000 ) ) ;
#144 = DIRECTION ( 'NONE',  ( 0.000000000000000000, 0.000000000000000000, 1.000000000000000000 ) ) ;
#145 = DIRECTION ( 'NONE',  ( -0.000000000000000000, -0.000000000000000000, -1.000000000000000000 ) ) ;
#146 = LOCAL_TIME ( 15, 48, 4.000000000000000000, #176 ) ;
#147 = DIRECTION ( 'NONE',  ( 1.000000000000000000, 0.000000000000000000, 0.000000000000000000 ) ) ;
#148 = ADVANCED_BREP_SHAPE_REPRESENTATION ( '1c5b', ( #249, #69 ), #192 ) ;
#149 = AXIS2_PLACEMENT_3D ( 'NONE', #233, #19, #130 ) ;
#150 = APPROVAL_ROLE ( '' ) ;
#151 = EDGE_LOOP ( 'NONE', ( #3, #217, #242, #112 ) ) ;
#152 = EDGE_CURVE ( 'NONE', #178, #236, #174, .T. ) ;
#153 = DIRECTION ( 'NONE',  ( 0.000000000000000000, 0.000000000000000000, 1.000000000000000000 ) ) ;
#154 = DIRECTION ( 'NONE',  ( 0.000000000000000000, 0.000000000000000000, 1.000000000000000000 ) ) ;
#155 = CARTESIAN_POINT ( 'NONE',  ( -0.5000000000000000000, 0.000000000000000000, 100.0000000000000000 ) ) ;
#156 = COORDINATED_UNIVERSAL_TIME_OFFSET ( 1, 0, .AHEAD. ) ;
#157 = VERTEX_POINT ( 'NONE', #212 ) ;
#158 = AXIS2_PLACEMENT_3D ( 'NONE', #102, #191, #186 ) ;
#159 = CLOSED_SHELL ( 'NONE', ( #190, #125, #220, #167, #60, #15, #253 ) ) ;
#160 =( LENGTH_UNIT ( ) NAMED_UNIT ( * ) SI_UNIT ( .MILLI., .METRE. ) );
#161 = DATE_TIME_ROLE ( 'creation_date' ) ;
#162 = LINE ( 'NONE', #205, #221 ) ;
#163 = APPROVAL_STATUS ( 'not_yet_approved' ) ;
#164 = LINE ( 'NONE', #23, #244 ) ;
#165 = AXIS2_PLACEMENT_3D ( 'NONE', #250, #189, #143 ) ;
#166 = ORIENTED_EDGE ( 'NONE', *, *, #204, .T. ) ;
#167 = ADVANCED_FACE ( 'NONE', ( #42, #41 ), #58, .T. ) ;
#168 = EDGE_LOOP ( 'NONE', ( #5, #139, #193, #70 ) ) ;
#169 = CARTESIAN_POINT ( 'NONE',  ( 0.000000000000000000, 0.000000000000000000, 0.000000000000000000 ) ) ;
#170 = LOCAL_TIME ( 15, 48, 4.000000000000000000, #32 ) ;
#171 = DIRECTION ( 'NONE',  ( -0.000000000000000000, -0.000000000000000000, -1.000000000000000000 ) ) ;
#172 = PERSON_AND_ORGANIZATION ( #14, #201 ) ;
#173 = DIRECTION ( 'NONE',  ( 1.000000000000000000, 0.000000000000000000, 0.000000000000000000 ) ) ;
#174 = CIRCLE ( 'NONE', #231, 0.5000000000000000000 ) ;
#175 = PERSON_AND_ORGANIZATION_ROLE ( 'design_owner' ) ;
#176 = COORDINATED_UNIVERSAL_TIME_OFFSET ( 1, 0, .AHEAD. ) ;
#177 = PERSON_AND_ORGANIZATION_ROLE ( 'classification_officer' ) ;
#178 = VERTEX_POINT ( 'NONE', #13 ) ;
#179 = EDGE_CURVE ( 'NONE', #52, #53, #99, .T. ) ;
#180 = ORIENTED_EDGE ( 'NONE', *, *, #152, .T. ) ;
#181 = VERTEX_POINT ( 'NONE', #29 ) ;
#182 = DATE_AND_TIME ( #21, #146 ) ;
#183 = EDGE_CURVE ( 'NONE', #53, #181, #84, .T. ) ;
#184 = VERTEX_POINT ( 'NONE', #246 ) ;
#185 = ORIENTED_EDGE ( 'NONE', *, *, #187, .F. ) ;
#186 = DIRECTION ( 'NONE',  ( 1.000000000000000000, 0.000000000000000000, -0.000000000000000000 ) ) ;
#187 = EDGE_CURVE ( 'NONE', #184, #52, #40, .T. ) ;
#188 = CARTESIAN_POINT ( 'NONE',  ( 0.000000000000000000, 0.000000000000000000, 100.0000000000000000 ) ) ;
#189 = DIRECTION ( 'NONE',  ( -0.000000000000000000, -0.000000000000000000, -1.000000000000000000 ) ) ;
#190 = ADVANCED_FACE ( 'NONE', ( #63 ), #25, .T. ) ;
#191 = DIRECTION ( 'NONE',  ( 0.000000000000000000, 0.000000000000000000, 1.000000000000000000 ) ) ;
#192 =( GEOMETRIC_REPRESENTATION_CONTEXT ( 3 ) GLOBAL_UNCERTAINTY_ASSIGNED_CONTEXT ( ( #135 ) ) GLOBAL_UNIT_ASSIGNED_CONTEXT ( ( #160, #215, #17 ) ) REPRESENTATION_CONTEXT ( 'NONE', 'WORKASPACE' ) );
#193 = ORIENTED_EDGE ( 'NONE', *, *, #128, .T. ) ;
#194 = CALENDAR_DATE ( 2023, 31, 1 ) ;
#195 = AXIS2_PLACEMENT_3D ( 'NONE', #28, #248, #101 ) ;
#196 = DIRECTION ( 'NONE',  ( -0.000000000000000000, -0.000000000000000000, -1.000000000000000000 ) ) ;
#197 = PERSON_AND_ORGANIZATION ( #14, #201 ) ;
#198 = ORIENTED_EDGE ( 'NONE', *, *, #87, .F. ) ;
#199 = APPROVAL_ROLE ( '' ) ;
#200 = CC_DESIGN_SECURITY_CLASSIFICATION ( #4, ( #103 ) ) ;
#201 = ORGANIZATION ( 'NEURÈENÝ', 'NEURÈENÝ', '' ) ;
#202 = APPROVAL_ROLE ( '' ) ;
#203 = FACE_OUTER_BOUND ( 'NONE', #132, .T. ) ;
#204 = EDGE_CURVE ( 'NONE', #181, #53, #9, .T. ) ;
#205 = CARTESIAN_POINT ( 'NONE',  ( 1.250000000000000000, 1.530808498934191571E-16, 1.199999999999999956 ) ) ;
#206 = VECTOR ( 'NONE', #82, 1000.000000000000000 ) ;
#207 = FACE_OUTER_BOUND ( 'NONE', #151, .T. ) ;
#208 = APPROVAL_PERSON_ORGANIZATION ( #1, #43, #202 ) ;
#209 = CARTESIAN_POINT ( 'NONE',  ( 0.5000000000000000000, 6.123233995736766036E-17, 1.199999999999999956 ) ) ;
#210 = EDGE_CURVE ( 'NONE', #52, #184, #98, .T. ) ;
#211 = CYLINDRICAL_SURFACE ( 'NONE', #165, 1.250000000000000000 ) ;
#212 = CARTESIAN_POINT ( 'NONE',  ( -0.5000000000000000000, 0.000000000000000000, 1.199999999999999956 ) ) ;
#213 = APPLICATION_CONTEXT ( 'configuration controlled 3d designs of mechanical parts and assemblies' ) ;
#214 = COORDINATED_UNIVERSAL_TIME_OFFSET ( 1, 0, .AHEAD. ) ;
#215 =( NAMED_UNIT ( * ) PLANE_ANGLE_UNIT ( ) SI_UNIT ( $, .RADIAN. ) );
#216 = EDGE_LOOP ( 'NONE', ( #234, #115 ) ) ;
#217 = ORIENTED_EDGE ( 'NONE', *, *, #83, .F. ) ;
#218 = AXIS2_PLACEMENT_3D ( 'NONE', #240, #138, #93 ) ;
#219 = CALENDAR_DATE ( 2023, 31, 1 ) ;
#220 = ADVANCED_FACE ( 'NONE', ( #86 ), #107, .T. ) ;
#221 = VECTOR ( 'NONE', #36, 1000.000000000000000 ) ;
#222 = APPROVAL_DATE_TIME ( #182, #2 ) ;
#223 = APPROVAL ( #88, 'NEURÈENÝ' ) ;
#224 = AXIS2_PLACEMENT_3D ( 'NONE', #252, #196, #67 ) ;
#225 = ORIENTED_EDGE ( 'NONE', *, *, #83, .T. ) ;
#226 = APPLICATION_CONTEXT ( 'configuration controlled 3d designs of mechanical parts and assemblies' ) ;
#227 = CARTESIAN_POINT ( 'NONE',  ( 0.000000000000000000, 0.000000000000000000, 0.000000000000000000 ) ) ;
#228 = DIRECTION ( 'NONE',  ( 1.000000000000000000, 0.000000000000000000, 0.000000000000000000 ) ) ;
#229 = APPROVAL_PERSON_ORGANIZATION ( #97, #223, #150 ) ;
#230 = DIRECTION ( 'NONE',  ( 0.000000000000000000, 0.000000000000000000, 1.000000000000000000 ) ) ;
#231 = AXIS2_PLACEMENT_3D ( 'NONE', #122, #230, #30 ) ;
#232 = CC_DESIGN_PERSON_AND_ORGANIZATION_ASSIGNMENT ( #172, #56, ( #11 ) ) ;
#233 = CARTESIAN_POINT ( 'NONE',  ( 0.000000000000000000, 0.000000000000000000, 100.0000000000000000 ) ) ;
#234 = ORIENTED_EDGE ( 'NONE', *, *, #210, .T. ) ;
#235 = PERSON_AND_ORGANIZATION ( #14, #201 ) ;
#236 = VERTEX_POINT ( 'NONE', #155 ) ;
#237 = PERSON_AND_ORGANIZATION_ROLE ( 'creator' ) ;
#238 = CARTESIAN_POINT ( 'NONE',  ( -1.250000000000000000, 0.000000000000000000, 0.000000000000000000 ) ) ;
#239 = DATE_AND_TIME ( #219, #33 ) ;
#240 = CARTESIAN_POINT ( 'NONE',  ( 0.000000000000000000, 0.000000000000000000, 100.0000000000000000 ) ) ;
#241 = AXIS2_PLACEMENT_3D ( 'NONE', #188, #145, #10 ) ;
#242 = ORIENTED_EDGE ( 'NONE', *, *, #109, .T. ) ;
#243 = DIRECTION ( 'NONE',  ( -0.000000000000000000, -0.000000000000000000, -1.000000000000000000 ) ) ;
#244 = VECTOR ( 'NONE', #243, 1000.000000000000000 ) ;
#245 = PRODUCT_DEFINITION_SHAPE ( 'NONE', 'NONE',  #11 ) ;
#246 = CARTESIAN_POINT ( 'NONE',  ( 1.250000000000000000, 1.530808498934191571E-16, 1.199999999999999956 ) ) ;
#247 = DIRECTION ( 'NONE',  ( 0.000000000000000000, 0.000000000000000000, 1.000000000000000000 ) ) ;
#248 = DIRECTION ( 'NONE',  ( 0.000000000000000000, 0.000000000000000000, 1.000000000000000000 ) ) ;
#249 = MANIFOLD_SOLID_BREP ( 'Pøidat vysunutím3', #159 ) ;
#250 = CARTESIAN_POINT ( 'NONE',  ( 0.000000000000000000, 0.000000000000000000, 1.199999999999999956 ) ) ;
#251 = CC_DESIGN_PERSON_AND_ORGANIZATION_ASSIGNMENT ( #124, #175, ( #96 ) ) ;
#252 = CARTESIAN_POINT ( 'NONE',  ( 0.000000000000000000, 0.000000000000000000, 1.199999999999999956 ) ) ;
#253 = ADVANCED_FACE ( 'NONE', ( #45 ), #64, .T. ) ;
#254 = PERSON_AND_ORGANIZATION_ROLE ( 'design_supplier' ) ;
#255 = EDGE_LOOP ( 'NONE', ( #185, #134, #166, #46 ) ) ;
ENDSEC;
END-ISO-10303-21;
