ISO-10303-21;
HEADER;
FILE_DESCRIPTION (( 'STEP AP203' ),
    '1' );
FILE_NAME ('c836.STEP',
    '2023-02-13T14:04:10',
    ( '' ),
    ( '' ),
    'SwSTEP 2.0',
    'SolidWorks 2019',
    '' );
FILE_SCHEMA (( 'CONFIG_CONTROL_DESIGN' ));
ENDSEC;

DATA;
#1 = EDGE_CURVE ( 'NONE', #107, #85, #6, .T. ) ;
#2 = ORIENTED_EDGE ( 'NONE', *, *, #148, .T. ) ;
#3 = APPROVAL_PERSON_ORGANIZATION ( #69, #68, #53 ) ;
#4 = ORIENTED_EDGE ( 'NONE', *, *, #242, .T. ) ;
#5 = DIRECTION ( 'NONE',  ( 1.000000000000000000, 0.000000000000000000, 0.000000000000000000 ) ) ;
#6 = LINE ( 'NONE', #58, #189 ) ;
#7 = CALENDAR_DATE ( 2023, 13, 2 ) ;
#8 = DIRECTION ( 'NONE',  ( 1.000000000000000000, 0.000000000000000000, 0.000000000000000000 ) ) ;
#9 = CC_DESIGN_APPROVAL ( #106, ( #93 ) ) ;
#10 = APPROVAL_DATE_TIME ( #72, #187 ) ;
#11 = CARTESIAN_POINT ( 'NONE',  ( 0.000000000000000000, 0.000000000000000000, 5.000000000000000000 ) ) ;
#12 = EDGE_CURVE ( 'NONE', #179, #107, #108, .T. ) ;
#13 = FACE_OUTER_BOUND ( 'NONE', #60, .T. ) ;
#14 = PERSON_AND_ORGANIZATION ( #130, #190 ) ;
#15 = CARTESIAN_POINT ( 'NONE',  ( 6.000000000000000888, 7.347880794884120722E-16, 0.000000000000000000 ) ) ;
#16 = PRODUCT_RELATED_PRODUCT_CATEGORY ( 'detail', '', ( #43 ) ) ;
#17 = CIRCLE ( 'NONE', #253, 6.000000000000000888 ) ;
#18 = VECTOR ( 'NONE', #22, 1000.000000000000000 ) ;
#19 = EDGE_CURVE ( 'NONE', #191, #163, #143, .T. ) ;
#20 = ORIENTED_EDGE ( 'NONE', *, *, #12, .T. ) ;
#21 = LINE ( 'NONE', #201, #168 ) ;
#22 = DIRECTION ( 'NONE',  ( -0.000000000000000000, -0.000000000000000000, -1.000000000000000000 ) ) ;
#23 = VERTEX_POINT ( 'NONE', #124 ) ;
#24 = ORIENTED_EDGE ( 'NONE', *, *, #252, .T. ) ;
#25 = LINE ( 'NONE', #133, #65 ) ;
#26 = AXIS2_PLACEMENT_3D ( 'NONE', #91, #94, #229 ) ;
#27 = DIRECTION ( 'NONE',  ( -0.000000000000000000, -0.000000000000000000, -1.000000000000000000 ) ) ;
#28 = ADVANCED_BREP_SHAPE_REPRESENTATION ( 'c836', ( #157, #235 ), #181 ) ;
#29 = AXIS2_PLACEMENT_3D ( 'NONE', #156, #227, #167 ) ;
#30 = PERSON_AND_ORGANIZATION ( #130, #190 ) ;
#31 = PERSON_AND_ORGANIZATION ( #130, #190 ) ;
#32 = APPLICATION_PROTOCOL_DEFINITION ( 'international standard', 'config_control_design', 1994, #185 ) ;
#33 = DIRECTION ( 'NONE',  ( -1.000000000000000000, 0.000000000000000000, 0.000000000000000000 ) ) ;
#34 = SHAPE_DEFINITION_REPRESENTATION ( #224, #28 ) ;
#35 = CIRCLE ( 'NONE', #146, 6.000000000000000888 ) ;
#36 = CARTESIAN_POINT ( 'NONE',  ( 0.000000000000000000, 0.000000000000000000, 200.0000000000000000 ) ) ;
#37 = DIRECTION ( 'NONE',  ( 0.000000000000000000, 0.000000000000000000, 1.000000000000000000 ) ) ;
#38 = DIRECTION ( 'NONE',  ( 1.000000000000000000, 0.000000000000000000, 0.000000000000000000 ) ) ;
#39 = CIRCLE ( 'NONE', #238, 3.250000000000000444 ) ;
#40 = APPROVAL_PERSON_ORGANIZATION ( #14, #187, #149 ) ;
#41 = EDGE_CURVE ( 'NONE', #102, #144, #17, .T. ) ;
#42 = ORIENTED_EDGE ( 'NONE', *, *, #236, .F. ) ;
#43 = PRODUCT ( 'c836', 'c836', '', ( #55 ) ) ;
#44 = ADVANCED_FACE ( 'NONE', ( #154 ), #233, .F. ) ;
#45 = DIRECTION ( 'NONE',  ( -0.000000000000000000, -0.000000000000000000, -1.000000000000000000 ) ) ;
#46 = CIRCLE ( 'NONE', #178, 6.000000000000000888 ) ;
#47 = ORIENTED_EDGE ( 'NONE', *, *, #175, .F. ) ;
#48 = CARTESIAN_POINT ( 'NONE',  ( 3.250000000000000444, 3.980102097228898231E-16, 200.0000000000000000 ) ) ;
#49 = CALENDAR_DATE ( 2023, 13, 2 ) ;
#50 = CARTESIAN_POINT ( 'NONE',  ( 0.000000000000000000, 0.000000000000000000, 0.000000000000000000 ) ) ;
#51 = DIRECTION ( 'NONE',  ( -0.000000000000000000, -0.000000000000000000, -1.000000000000000000 ) ) ;
#52 = FACE_OUTER_BOUND ( 'NONE', #249, .T. ) ;
#53 = APPROVAL_ROLE ( '' ) ;
#54 = ADVANCED_FACE ( 'NONE', ( #199 ), #246, .T. ) ;
#55 = MECHANICAL_CONTEXT ( 'NONE', #185, 'mechanical' ) ;
#56 = CYLINDRICAL_SURFACE ( 'NONE', #140, 3.250000000000000444 ) ;
#57 = PERSON_AND_ORGANIZATION_ROLE ( 'creator' ) ;
#58 = CARTESIAN_POINT ( 'NONE',  ( -3.250000000000000444, 0.000000000000000000, 200.0000000000000000 ) ) ;
#59 = EDGE_CURVE ( 'NONE', #23, #85, #244, .T. ) ;
#60 = EDGE_LOOP ( 'NONE', ( #203, #188 ) ) ;
#61 = CC_DESIGN_DATE_AND_TIME_ASSIGNMENT ( #153, #114, ( #129 ) ) ;
#62 = DIRECTION ( 'NONE',  ( 1.000000000000000000, 0.000000000000000000, 0.000000000000000000 ) ) ;
#63 = ORIENTED_EDGE ( 'NONE', *, *, #252, .F. ) ;
#64 = AXIS2_PLACEMENT_3D ( 'NONE', #232, #195, #152 ) ;
#65 = VECTOR ( 'NONE', #27, 1000.000000000000000 ) ;
#66 = CC_DESIGN_PERSON_AND_ORGANIZATION_ASSIGNMENT ( #31, #116, ( #231 ) ) ;
#67 = ORIENTED_EDGE ( 'NONE', *, *, #1, .F. ) ;
#68 = APPROVAL ( #123, 'NEURÈENÝ' ) ;
#69 = PERSON_AND_ORGANIZATION ( #130, #190 ) ;
#70 = CALENDAR_DATE ( 2023, 13, 2 ) ;
#71 = ORIENTED_EDGE ( 'NONE', *, *, #59, .F. ) ;
#72 = DATE_AND_TIME ( #245, #158 ) ;
#73 = DIRECTION ( 'NONE',  ( 0.000000000000000000, 0.000000000000000000, 1.000000000000000000 ) ) ;
#74 = ADVANCED_FACE ( 'NONE', ( #171 ), #100, .T. ) ;
#75 = PERSON_AND_ORGANIZATION_ROLE ( 'classification_officer' ) ;
#76 = DIRECTION ( 'NONE',  ( 0.000000000000000000, 0.000000000000000000, 1.000000000000000000 ) ) ;
#77 = CARTESIAN_POINT ( 'NONE',  ( 0.000000000000000000, 0.000000000000000000, 5.000000000000000000 ) ) ;
#78 = AXIS2_PLACEMENT_3D ( 'NONE', #117, #76, #173 ) ;
#79 = PLANE ( 'NONE',  #120 ) ;
#80 = DIRECTION ( 'NONE',  ( 0.000000000000000000, 0.000000000000000000, 1.000000000000000000 ) ) ;
#81 = CC_DESIGN_APPROVAL ( #68, ( #129 ) ) ;
#82 = DIRECTION ( 'NONE',  ( 0.000000000000000000, 0.000000000000000000, 1.000000000000000000 ) ) ;
#83 = ORIENTED_EDGE ( 'NONE', *, *, #1, .T. ) ;
#84 = DIRECTION ( 'NONE',  ( 0.000000000000000000, 0.000000000000000000, 1.000000000000000000 ) ) ;
#85 = VERTEX_POINT ( 'NONE', #169 ) ;
#86 = CARTESIAN_POINT ( 'NONE',  ( -6.000000000000000888, 0.000000000000000000, 0.000000000000000000 ) ) ;
#87 = EDGE_LOOP ( 'NONE', ( #126, #71 ) ) ;
#88 = ADVANCED_FACE ( 'NONE', ( #228 ), #56, .T. ) ;
#89 = EDGE_LOOP ( 'NONE', ( #182, #42, #128, #186 ) ) ;
#90 = APPLICATION_CONTEXT ( 'configuration controlled 3d designs of mechanical parts and assemblies' ) ;
#91 = CARTESIAN_POINT ( 'NONE',  ( 0.000000000000000000, 0.000000000000000000, 200.0000000000000000 ) ) ;
#92 = PERSON_AND_ORGANIZATION_ROLE ( 'design_owner' ) ;
#93 = PRODUCT_DEFINITION ( 'NEZNÁMÝ', '', #231, #247 ) ;
#94 = DIRECTION ( 'NONE',  ( -0.000000000000000000, -0.000000000000000000, -1.000000000000000000 ) ) ;
#95 = APPROVAL_PERSON_ORGANIZATION ( #211, #106, #166 ) ;
#96 = CARTESIAN_POINT ( 'NONE',  ( 0.000000000000000000, 0.000000000000000000, 5.000000000000000000 ) ) ;
#97 =( NAMED_UNIT ( * ) SI_UNIT ( $, .STERADIAN. ) SOLID_ANGLE_UNIT ( ) );
#98 = PLANE ( 'NONE',  #220 ) ;
#99 = APPROVAL_STATUS ( 'not_yet_approved' ) ;
#100 = CYLINDRICAL_SURFACE ( 'NONE', #26, 3.250000000000000444 ) ;
#101 = CC_DESIGN_APPROVAL ( #187, ( #231 ) ) ;
#102 = VERTEX_POINT ( 'NONE', #209 ) ;
#103 = UNCERTAINTY_MEASURE_WITH_UNIT (LENGTH_MEASURE( 1.000000000000000082E-05 ), #184, 'distance_accuracy_value', 'NONE');
#104 = DIRECTION ( 'NONE',  ( -0.000000000000000000, -0.000000000000000000, -1.000000000000000000 ) ) ;
#105 = ORIENTED_EDGE ( 'NONE', *, *, #242, .F. ) ;
#106 = APPROVAL ( #115, 'NEURÈENÝ' ) ;
#107 = VERTEX_POINT ( 'NONE', #214 ) ;
#108 = CIRCLE ( 'NONE', #78, 3.250000000000000444 ) ;
#109 = CARTESIAN_POINT ( 'NONE',  ( 0.000000000000000000, 0.000000000000000000, 5.000000000000000000 ) ) ;
#110 = CYLINDRICAL_SURFACE ( 'NONE', #251, 6.000000000000000888 ) ;
#111 = CC_DESIGN_PERSON_AND_ORGANIZATION_ASSIGNMENT ( #30, #92, ( #43 ) ) ;
#112 = DIRECTION ( 'NONE',  ( 1.000000000000000000, 0.000000000000000000, 0.000000000000000000 ) ) ;
#113 = CC_DESIGN_SECURITY_CLASSIFICATION ( #129, ( #231 ) ) ;
#114 = DATE_TIME_ROLE ( 'classification_date' ) ;
#115 = APPROVAL_STATUS ( 'not_yet_approved' ) ;
#116 = PERSON_AND_ORGANIZATION_ROLE ( 'design_supplier' ) ;
#117 = CARTESIAN_POINT ( 'NONE',  ( 0.000000000000000000, 0.000000000000000000, 200.0000000000000000 ) ) ;
#118 = DATE_AND_TIME ( #230, #131 ) ;
#119 = DIRECTION ( 'NONE',  ( 0.000000000000000000, 0.000000000000000000, 1.000000000000000000 ) ) ;
#120 = AXIS2_PLACEMENT_3D ( 'NONE', #36, #121, #217 ) ;
#121 = DIRECTION ( 'NONE',  ( 0.000000000000000000, 0.000000000000000000, 1.000000000000000000 ) ) ;
#122 = ADVANCED_FACE ( 'NONE', ( #52 ), #79, .T. ) ;
#123 = APPROVAL_STATUS ( 'not_yet_approved' ) ;
#124 = CARTESIAN_POINT ( 'NONE',  ( 3.250000000000000444, 3.980102097228898231E-16, 5.000000000000000000 ) ) ;
#125 = ORIENTED_EDGE ( 'NONE', *, *, #19, .F. ) ;
#126 = ORIENTED_EDGE ( 'NONE', *, *, #148, .F. ) ;
#127 = AXIS2_PLACEMENT_3D ( 'NONE', #96, #119, #8 ) ;
#128 = ORIENTED_EDGE ( 'NONE', *, *, #200, .T. ) ;
#129 = SECURITY_CLASSIFICATION ( '', '', #155 ) ;
#130 = PERSON ( 'NEURÈENÝ', 'NEURÈENÝ', 'NEURÈENÝ', ('NEURÈENÝ'), ('NEURÈENÝ'), ('NEURÈENÝ') ) ;
#131 = LOCAL_TIME ( 15, 4, 10.00000000000000000, #172 ) ;
#132 = ORIENTED_EDGE ( 'NONE', *, *, #141, .T. ) ;
#133 = CARTESIAN_POINT ( 'NONE',  ( -6.000000000000000888, 0.000000000000000000, 5.000000000000000000 ) ) ;
#134 = COORDINATED_UNIVERSAL_TIME_OFFSET ( 1, 0, .AHEAD. ) ;
#135 = ADVANCED_FACE ( 'NONE', ( #197, #13 ), #98, .T. ) ;
#136 = COORDINATED_UNIVERSAL_TIME_OFFSET ( 1, 0, .AHEAD. ) ;
#137 = DIRECTION ( 'NONE',  ( -1.000000000000000000, 0.000000000000000000, 0.000000000000000000 ) ) ;
#138 = AXIS2_PLACEMENT_3D ( 'NONE', #176, #82, #62 ) ;
#139 = COORDINATED_UNIVERSAL_TIME_OFFSET ( 1, 0, .AHEAD. ) ;
#140 = AXIS2_PLACEMENT_3D ( 'NONE', #174, #51, #137 ) ;
#141 = EDGE_CURVE ( 'NONE', #102, #163, #21, .T. ) ;
#142 = CC_DESIGN_PERSON_AND_ORGANIZATION_ASSIGNMENT ( #151, #170, ( #231 ) ) ;
#143 = CIRCLE ( 'NONE', #29, 6.000000000000000888 ) ;
#144 = VERTEX_POINT ( 'NONE', #204 ) ;
#145 = CARTESIAN_POINT ( 'NONE',  ( 0.000000000000000000, 0.000000000000000000, 0.000000000000000000 ) ) ;
#146 = AXIS2_PLACEMENT_3D ( 'NONE', #145, #161, #5 ) ;
#147 = DIRECTION ( 'NONE',  ( 0.000000000000000000, 0.000000000000000000, 1.000000000000000000 ) ) ;
#148 = EDGE_CURVE ( 'NONE', #85, #23, #39, .T. ) ;
#149 = APPROVAL_ROLE ( '' ) ;
#150 = LOCAL_TIME ( 15, 4, 10.00000000000000000, #139 ) ;
#151 = PERSON_AND_ORGANIZATION ( #130, #190 ) ;
#152 = DIRECTION ( 'NONE',  ( 1.000000000000000000, 0.000000000000000000, -0.000000000000000000 ) ) ;
#153 = DATE_AND_TIME ( #49, #218 ) ;
#154 = FACE_OUTER_BOUND ( 'NONE', #222, .T. ) ;
#155 = SECURITY_CLASSIFICATION_LEVEL ( 'unclassified' ) ;
#156 = CARTESIAN_POINT ( 'NONE',  ( 0.000000000000000000, 0.000000000000000000, 0.000000000000000000 ) ) ;
#157 = MANIFOLD_SOLID_BREP ( 'Pøidat vysunutím3', #177 ) ;
#158 = LOCAL_TIME ( 15, 4, 10.00000000000000000, #136 ) ;
#159 = DIRECTION ( 'NONE',  ( 1.000000000000000000, 0.000000000000000000, 0.000000000000000000 ) ) ;
#160 = ORIENTED_EDGE ( 'NONE', *, *, #12, .F. ) ;
#161 = DIRECTION ( 'NONE',  ( 0.000000000000000000, 0.000000000000000000, 1.000000000000000000 ) ) ;
#162 = CC_DESIGN_DATE_AND_TIME_ASSIGNMENT ( #215, #198, ( #93 ) ) ;
#163 = VERTEX_POINT ( 'NONE', #15 ) ;
#164 =( NAMED_UNIT ( * ) PLANE_ANGLE_UNIT ( ) SI_UNIT ( $, .RADIAN. ) );
#165 = PERSON_AND_ORGANIZATION ( #130, #190 ) ;
#166 = APPROVAL_ROLE ( '' ) ;
#167 = DIRECTION ( 'NONE',  ( 1.000000000000000000, 0.000000000000000000, 0.000000000000000000 ) ) ;
#168 = VECTOR ( 'NONE', #104, 1000.000000000000000 ) ;
#169 = CARTESIAN_POINT ( 'NONE',  ( -3.250000000000000444, 0.000000000000000000, 5.000000000000000000 ) ) ;
#170 = PERSON_AND_ORGANIZATION_ROLE ( 'creator' ) ;
#171 = FACE_OUTER_BOUND ( 'NONE', #212, .T. ) ;
#172 = COORDINATED_UNIVERSAL_TIME_OFFSET ( 1, 0, .AHEAD. ) ;
#173 = DIRECTION ( 'NONE',  ( 1.000000000000000000, 0.000000000000000000, 0.000000000000000000 ) ) ;
#174 = CARTESIAN_POINT ( 'NONE',  ( 0.000000000000000000, 0.000000000000000000, 200.0000000000000000 ) ) ;
#175 = EDGE_CURVE ( 'NONE', #107, #179, #226, .T. ) ;
#176 = CARTESIAN_POINT ( 'NONE',  ( 0.000000000000000000, 0.000000000000000000, 200.0000000000000000 ) ) ;
#177 = CLOSED_SHELL ( 'NONE', ( #74, #248, #54, #135, #44, #88, #122 ) ) ;
#178 = AXIS2_PLACEMENT_3D ( 'NONE', #207, #147, #112 ) ;
#179 = VERTEX_POINT ( 'NONE', #48 ) ;
#180 = CARTESIAN_POINT ( 'NONE',  ( 0.000000000000000000, 0.000000000000000000, 5.000000000000000000 ) ) ;
#181 =( GEOMETRIC_REPRESENTATION_CONTEXT ( 3 ) GLOBAL_UNCERTAINTY_ASSIGNED_CONTEXT ( ( #103 ) ) GLOBAL_UNIT_ASSIGNED_CONTEXT ( ( #184, #164, #97 ) ) REPRESENTATION_CONTEXT ( 'NONE', 'WORKASPACE' ) );
#182 = ORIENTED_EDGE ( 'NONE', *, *, #141, .F. ) ;
#183 = LINE ( 'NONE', #255, #18 ) ;
#184 =( LENGTH_UNIT ( ) NAMED_UNIT ( * ) SI_UNIT ( .MILLI., .METRE. ) );
#185 = APPLICATION_CONTEXT ( 'configuration controlled 3d designs of mechanical parts and assemblies' ) ;
#186 = ORIENTED_EDGE ( 'NONE', *, *, #19, .T. ) ;
#187 = APPROVAL ( #99, 'NEURÈENÝ' ) ;
#188 = ORIENTED_EDGE ( 'NONE', *, *, #41, .T. ) ;
#189 = VECTOR ( 'NONE', #216, 1000.000000000000000 ) ;
#190 = ORGANIZATION ( 'NEURÈENÝ', 'NEURÈENÝ', '' ) ;
#191 = VERTEX_POINT ( 'NONE', #86 ) ;
#192 = DIRECTION ( 'NONE',  ( 1.000000000000000000, 0.000000000000000000, 0.000000000000000000 ) ) ;
#193 = APPROVAL_DATE_TIME ( #118, #106 ) ;
#194 = LOCAL_TIME ( 15, 4, 10.00000000000000000, #134 ) ;
#195 = DIRECTION ( 'NONE',  ( 0.000000000000000000, 0.000000000000000000, 1.000000000000000000 ) ) ;
#196 = APPLICATION_PROTOCOL_DEFINITION ( 'international standard', 'config_control_design', 1994, #90 ) ;
#197 = FACE_BOUND ( 'NONE', #87, .T. ) ;
#198 = DATE_TIME_ROLE ( 'creation_date' ) ;
#199 = FACE_OUTER_BOUND ( 'NONE', #89, .T. ) ;
#200 = EDGE_CURVE ( 'NONE', #144, #191, #25, .T. ) ;
#201 = CARTESIAN_POINT ( 'NONE',  ( 6.000000000000000888, 7.347880794884120722E-16, 5.000000000000000000 ) ) ;
#202 = CARTESIAN_POINT ( 'NONE',  ( 0.000000000000000000, 0.000000000000000000, 5.000000000000000000 ) ) ;
#203 = ORIENTED_EDGE ( 'NONE', *, *, #236, .T. ) ;
#204 = CARTESIAN_POINT ( 'NONE',  ( -6.000000000000000888, 0.000000000000000000, 5.000000000000000000 ) ) ;
#205 = ORIENTED_EDGE ( 'NONE', *, *, #175, .T. ) ;
#206 = FACE_OUTER_BOUND ( 'NONE', #219, .T. ) ;
#207 = CARTESIAN_POINT ( 'NONE',  ( 0.000000000000000000, 0.000000000000000000, 5.000000000000000000 ) ) ;
#208 = DATE_AND_TIME ( #7, #194 ) ;
#209 = CARTESIAN_POINT ( 'NONE',  ( 6.000000000000000888, 7.347880794884120722E-16, 5.000000000000000000 ) ) ;
#210 = CC_DESIGN_PERSON_AND_ORGANIZATION_ASSIGNMENT ( #241, #57, ( #93 ) ) ;
#211 = PERSON_AND_ORGANIZATION ( #130, #190 ) ;
#212 = EDGE_LOOP ( 'NONE', ( #160, #24, #239, #67 ) ) ;
#213 = APPROVAL_DATE_TIME ( #208, #68 ) ;
#214 = CARTESIAN_POINT ( 'NONE',  ( -3.250000000000000444, 0.000000000000000000, 200.0000000000000000 ) ) ;
#215 = DATE_AND_TIME ( #70, #150 ) ;
#216 = DIRECTION ( 'NONE',  ( -0.000000000000000000, -0.000000000000000000, -1.000000000000000000 ) ) ;
#217 = DIRECTION ( 'NONE',  ( 1.000000000000000000, 0.000000000000000000, -0.000000000000000000 ) ) ;
#218 = LOCAL_TIME ( 15, 4, 10.00000000000000000, #225 ) ;
#219 = EDGE_LOOP ( 'NONE', ( #221, #132, #4, #237 ) ) ;
#220 = AXIS2_PLACEMENT_3D ( 'NONE', #180, #80, #250 ) ;
#221 = ORIENTED_EDGE ( 'NONE', *, *, #41, .F. ) ;
#222 = EDGE_LOOP ( 'NONE', ( #125, #105 ) ) ;
#223 = CC_DESIGN_PERSON_AND_ORGANIZATION_ASSIGNMENT ( #165, #75, ( #129 ) ) ;
#224 = PRODUCT_DEFINITION_SHAPE ( 'NONE', 'NONE',  #93 ) ;
#225 = COORDINATED_UNIVERSAL_TIME_OFFSET ( 1, 0, .AHEAD. ) ;
#226 = CIRCLE ( 'NONE', #138, 3.250000000000000444 ) ;
#227 = DIRECTION ( 'NONE',  ( 0.000000000000000000, 0.000000000000000000, 1.000000000000000000 ) ) ;
#228 = FACE_OUTER_BOUND ( 'NONE', #234, .T. ) ;
#229 = DIRECTION ( 'NONE',  ( -1.000000000000000000, 0.000000000000000000, 0.000000000000000000 ) ) ;
#230 = CALENDAR_DATE ( 2023, 13, 2 ) ;
#231 = PRODUCT_DEFINITION_FORMATION_WITH_SPECIFIED_SOURCE ( 'LIBOVOLNÝ', '', #43, .NOT_KNOWN. ) ;
#232 = CARTESIAN_POINT ( 'NONE',  ( 0.000000000000000000, 0.000000000000000000, 0.000000000000000000 ) ) ;
#233 = PLANE ( 'NONE',  #64 ) ;
#234 = EDGE_LOOP ( 'NONE', ( #63, #47, #83, #2 ) ) ;
#235 = AXIS2_PLACEMENT_3D ( 'NONE', #50, #37, #192 ) ;
#236 = EDGE_CURVE ( 'NONE', #144, #102, #46, .T. ) ;
#237 = ORIENTED_EDGE ( 'NONE', *, *, #200, .F. ) ;
#238 = AXIS2_PLACEMENT_3D ( 'NONE', #202, #84, #159 ) ;
#239 = ORIENTED_EDGE ( 'NONE', *, *, #59, .T. ) ;
#240 = DIRECTION ( 'NONE',  ( -1.000000000000000000, 0.000000000000000000, 0.000000000000000000 ) ) ;
#241 = PERSON_AND_ORGANIZATION ( #130, #190 ) ;
#242 = EDGE_CURVE ( 'NONE', #163, #191, #35, .T. ) ;
#243 = DIRECTION ( 'NONE',  ( -0.000000000000000000, -0.000000000000000000, -1.000000000000000000 ) ) ;
#244 = CIRCLE ( 'NONE', #127, 3.250000000000000444 ) ;
#245 = CALENDAR_DATE ( 2023, 13, 2 ) ;
#246 = CYLINDRICAL_SURFACE ( 'NONE', #254, 6.000000000000000888 ) ;
#247 = DESIGN_CONTEXT ( 'detailed design', #90, 'design' ) ;
#248 = ADVANCED_FACE ( 'NONE', ( #206 ), #110, .T. ) ;
#249 = EDGE_LOOP ( 'NONE', ( #205, #20 ) ) ;
#250 = DIRECTION ( 'NONE',  ( 1.000000000000000000, 0.000000000000000000, -0.000000000000000000 ) ) ;
#251 = AXIS2_PLACEMENT_3D ( 'NONE', #109, #45, #240 ) ;
#252 = EDGE_CURVE ( 'NONE', #179, #23, #183, .T. ) ;
#253 = AXIS2_PLACEMENT_3D ( 'NONE', #77, #73, #38 ) ;
#254 = AXIS2_PLACEMENT_3D ( 'NONE', #11, #243, #33 ) ;
#255 = CARTESIAN_POINT ( 'NONE',  ( 3.250000000000000444, 3.980102097228898231E-16, 200.0000000000000000 ) ) ;
ENDSEC;
END-ISO-10303-21;
