ISO-10303-21;
HEADER;
FILE_DESCRIPTION (( 'STEP AP203' ),
    '1' );
FILE_NAME ('8651.STEP',
    '2023-01-31T09:59:53',
    ( '' ),
    ( '' ),
    'SwSTEP 2.0',
    'SolidWorks 2019',
    '' );
FILE_SCHEMA (( 'CONFIG_CONTROL_DESIGN' ));
ENDSEC;

DATA;
#1 = PERSON_AND_ORGANIZATION_ROLE ( 'creator' ) ;
#2 = VECTOR ( 'NONE', #252, 1000.000000000000000 ) ;
#3 = DATE_AND_TIME ( #181, #210 ) ;
#4 = APPLICATION_CONTEXT ( 'configuration controlled 3d designs of mechanical parts and assemblies' ) ;
#5 = AXIS2_PLACEMENT_3D ( 'NONE', #158, #13, #136 ) ;
#6 = ORIENTED_EDGE ( 'NONE', *, *, #196, .F. ) ;
#7 = EDGE_CURVE ( 'NONE', #165, #223, #248, .T. ) ;
#8 = APPROVAL_PERSON_ORGANIZATION ( #99, #81, #179 ) ;
#9 = ORIENTED_EDGE ( 'NONE', *, *, #74, .F. ) ;
#10 = EDGE_CURVE ( 'NONE', #47, #204, #138, .T. ) ;
#11 = ORIENTED_EDGE ( 'NONE', *, *, #97, .F. ) ;
#12 = DIRECTION ( 'NONE',  ( 0.000000000000000000, 0.000000000000000000, 1.000000000000000000 ) ) ;
#13 = DIRECTION ( 'NONE',  ( 0.000000000000000000, 0.000000000000000000, 1.000000000000000000 ) ) ;
#14 = AXIS2_PLACEMENT_3D ( 'NONE', #228, #120, #250 ) ;
#15 = CARTESIAN_POINT ( 'NONE',  ( -1.250000000000000000, 0.000000000000000000, 1.199999999999999956 ) ) ;
#16 = CARTESIAN_POINT ( 'NONE',  ( 0.000000000000000000, 0.000000000000000000, 100.0000000000000000 ) ) ;
#17 = PERSON_AND_ORGANIZATION ( #76, #62 ) ;
#18 = PERSON_AND_ORGANIZATION ( #76, #62 ) ;
#19 = CC_DESIGN_APPROVAL ( #43, ( #245 ) ) ;
#20 = PERSON_AND_ORGANIZATION ( #76, #62 ) ;
#21 = APPROVAL_DATE_TIME ( #3, #43 ) ;
#22 = ADVANCED_FACE ( 'NONE', ( #231 ), #55, .T. ) ;
#23 = AXIS2_PLACEMENT_3D ( 'NONE', #16, #113, #117 ) ;
#24 = ORIENTED_EDGE ( 'NONE', *, *, #7, .F. ) ;
#25 = AXIS2_PLACEMENT_3D ( 'NONE', #66, #96, #90 ) ;
#26 = LINE ( 'NONE', #94, #2 ) ;
#27 = CARTESIAN_POINT ( 'NONE',  ( 0.000000000000000000, 0.000000000000000000, 1.199999999999999956 ) ) ;
#28 = CIRCLE ( 'NONE', #23, 0.5000000000000000000 ) ;
#29 = PLANE ( 'NONE',  #198 ) ;
#30 = EDGE_CURVE ( 'NONE', #150, #86, #70, .T. ) ;
#31 = FACE_OUTER_BOUND ( 'NONE', #108, .T. ) ;
#32 = CC_DESIGN_PERSON_AND_ORGANIZATION_ASSIGNMENT ( #18, #1, ( #127 ) ) ;
#33 = LINE ( 'NONE', #121, #172 ) ;
#34 = DIRECTION ( 'NONE',  ( 0.000000000000000000, 0.000000000000000000, 1.000000000000000000 ) ) ;
#35 = CC_DESIGN_PERSON_AND_ORGANIZATION_ASSIGNMENT ( #42, #83, ( #109 ) ) ;
#36 = DATE_TIME_ROLE ( 'creation_date' ) ;
#37 = AXIS2_PLACEMENT_3D ( 'NONE', #52, #75, #48 ) ;
#38 = APPROVAL_DATE_TIME ( #217, #81 ) ;
#39 = APPLICATION_PROTOCOL_DEFINITION ( 'international standard', 'config_control_design', 1994, #4 ) ;
#40 = SECURITY_CLASSIFICATION_LEVEL ( 'unclassified' ) ;
#41 = CC_DESIGN_APPROVAL ( #81, ( #127 ) ) ;
#42 = PERSON_AND_ORGANIZATION ( #76, #62 ) ;
#43 = APPROVAL ( #238, 'NEURÈENÝ' ) ;
#44 = CC_DESIGN_PERSON_AND_ORGANIZATION_ASSIGNMENT ( #239, #148, ( #127 ) ) ;
#45 = AXIS2_PLACEMENT_3D ( 'NONE', #175, #208, #206 ) ;
#46 = EDGE_LOOP ( 'NONE', ( #154, #85, #89, #9 ) ) ;
#47 = VERTEX_POINT ( 'NONE', #155 ) ;
#48 = DIRECTION ( 'NONE',  ( -1.000000000000000000, 0.000000000000000000, 0.000000000000000000 ) ) ;
#49 = DIRECTION ( 'NONE',  ( 1.000000000000000000, 0.000000000000000000, 0.000000000000000000 ) ) ;
#50 = CARTESIAN_POINT ( 'NONE',  ( 0.000000000000000000, 0.000000000000000000, 1.199999999999999956 ) ) ;
#51 = CC_DESIGN_PERSON_AND_ORGANIZATION_ASSIGNMENT ( #17, #160, ( #186 ) ) ;
#52 = CARTESIAN_POINT ( 'NONE',  ( 0.000000000000000000, 0.000000000000000000, 100.0000000000000000 ) ) ;
#53 = CARTESIAN_POINT ( 'NONE',  ( 0.000000000000000000, 0.000000000000000000, 0.000000000000000000 ) ) ;
#54 = AXIS2_PLACEMENT_3D ( 'NONE', #156, #141, #68 ) ;
#55 = CYLINDRICAL_SURFACE ( 'NONE', #45, 0.5000000000000000000 ) ;
#56 = CYLINDRICAL_SURFACE ( 'NONE', #215, 1.250000000000000000 ) ;
#57 =( NAMED_UNIT ( * ) PLANE_ANGLE_UNIT ( ) SI_UNIT ( $, .RADIAN. ) );
#58 = COORDINATED_UNIVERSAL_TIME_OFFSET ( 1, 0, .AHEAD. ) ;
#59 = DATE_AND_TIME ( #237, #221 ) ;
#60 = APPROVAL_ROLE ( '' ) ;
#61 = ORIENTED_EDGE ( 'NONE', *, *, #153, .F. ) ;
#62 = ORGANIZATION ( 'NEURÈENÝ', 'NEURÈENÝ', '' ) ;
#63 = EDGE_LOOP ( 'NONE', ( #11, #188, #227, #200 ) ) ;
#64 = ORIENTED_EDGE ( 'NONE', *, *, #134, .F. ) ;
#65 = CIRCLE ( 'NONE', #25, 1.250000000000000000 ) ;
#66 = CARTESIAN_POINT ( 'NONE',  ( 0.000000000000000000, 0.000000000000000000, 1.199999999999999956 ) ) ;
#67 = CARTESIAN_POINT ( 'NONE',  ( -0.5000000000000000000, 0.000000000000000000, 100.0000000000000000 ) ) ;
#68 = DIRECTION ( 'NONE',  ( 1.000000000000000000, 0.000000000000000000, 0.000000000000000000 ) ) ;
#69 = FACE_OUTER_BOUND ( 'NONE', #46, .T. ) ;
#70 = LINE ( 'NONE', #15, #190 ) ;
#71 = FACE_OUTER_BOUND ( 'NONE', #246, .T. ) ;
#72 = APPROVAL_PERSON_ORGANIZATION ( #20, #128, #240 ) ;
#73 = CARTESIAN_POINT ( 'NONE',  ( 1.250000000000000000, 1.530808498934191571E-16, 1.199999999999999956 ) ) ;
#74 = EDGE_CURVE ( 'NONE', #204, #223, #157, .T. ) ;
#75 = DIRECTION ( 'NONE',  ( -0.000000000000000000, -0.000000000000000000, -1.000000000000000000 ) ) ;
#76 = PERSON ( 'NEURÈENÝ', 'NEURÈENÝ', 'NEURÈENÝ', ('NEURÈENÝ'), ('NEURÈENÝ'), ('NEURÈENÝ') ) ;
#77 = APPLICATION_PROTOCOL_DEFINITION ( 'international standard', 'config_control_design', 1994, #207 ) ;
#78 = AXIS2_PLACEMENT_3D ( 'NONE', #211, #192, #212 ) ;
#79 = EDGE_CURVE ( 'NONE', #223, #165, #167, .T. ) ;
#80 = PERSON_AND_ORGANIZATION ( #76, #62 ) ;
#81 = APPROVAL ( #124, 'NEURÈENÝ' ) ;
#82 = AXIS2_PLACEMENT_3D ( 'NONE', #53, #118, #49 ) ;
#83 = PERSON_AND_ORGANIZATION_ROLE ( 'classification_officer' ) ;
#84 = EDGE_CURVE ( 'NONE', #86, #152, #161, .T. ) ;
#85 = ORIENTED_EDGE ( 'NONE', *, *, #134, .T. ) ;
#86 = VERTEX_POINT ( 'NONE', #251 ) ;
#87 = LOCAL_TIME ( 10, 59, 53.00000000000000000, #58 ) ;
#88 = UNCERTAINTY_MEASURE_WITH_UNIT (LENGTH_MEASURE( 1.000000000000000082E-05 ), #205, 'distance_accuracy_value', 'NONE');
#89 = ORIENTED_EDGE ( 'NONE', *, *, #7, .T. ) ;
#90 = DIRECTION ( 'NONE',  ( 1.000000000000000000, 0.000000000000000000, 0.000000000000000000 ) ) ;
#91 = VECTOR ( 'NONE', #176, 1000.000000000000000 ) ;
#92 = DIRECTION ( 'NONE',  ( 1.000000000000000000, 0.000000000000000000, 0.000000000000000000 ) ) ;
#93 = CARTESIAN_POINT ( 'NONE',  ( 0.5000000000000000000, 6.123233995736766036E-17, 1.199999999999999956 ) ) ;
#94 = CARTESIAN_POINT ( 'NONE',  ( 1.250000000000000000, 1.530808498934191571E-16, 1.199999999999999956 ) ) ;
#95 = DIRECTION ( 'NONE',  ( 1.000000000000000000, 0.000000000000000000, 0.000000000000000000 ) ) ;
#96 = DIRECTION ( 'NONE',  ( 0.000000000000000000, 0.000000000000000000, 1.000000000000000000 ) ) ;
#97 = EDGE_CURVE ( 'NONE', #225, #152, #26, .T. ) ;
#98 = CC_DESIGN_SECURITY_CLASSIFICATION ( #109, ( #127 ) ) ;
#99 = PERSON_AND_ORGANIZATION ( #76, #62 ) ;
#100 =( NAMED_UNIT ( * ) SI_UNIT ( $, .STERADIAN. ) SOLID_ANGLE_UNIT ( ) );
#101 = ADVANCED_FACE ( 'NONE', ( #31 ), #189, .T. ) ;
#102 = APPROVAL_DATE_TIME ( #59, #128 ) ;
#103 = PERSON_AND_ORGANIZATION ( #76, #62 ) ;
#104 = AXIS2_PLACEMENT_3D ( 'NONE', #213, #34, #255 ) ;
#105 = CALENDAR_DATE ( 2023, 31, 1 ) ;
#106 = EDGE_CURVE ( 'NONE', #150, #225, #254, .T. ) ;
#107 = EDGE_LOOP ( 'NONE', ( #64, #6, #110, #182 ) ) ;
#108 = EDGE_LOOP ( 'NONE', ( #170, #168, #243, #202 ) ) ;
#109 = SECURITY_CLASSIFICATION ( '', '', #40 ) ;
#110 = ORIENTED_EDGE ( 'NONE', *, *, #74, .T. ) ;
#111 = PRODUCT_RELATED_PRODUCT_CATEGORY ( 'detail', '', ( #186 ) ) ;
#112 = ORIENTED_EDGE ( 'NONE', *, *, #106, .T. ) ;
#113 = DIRECTION ( 'NONE',  ( 0.000000000000000000, 0.000000000000000000, 1.000000000000000000 ) ) ;
#114 = DESIGN_CONTEXT ( 'detailed design', #207, 'design' ) ;
#115 = CARTESIAN_POINT ( 'NONE',  ( -0.5000000000000000000, 0.000000000000000000, 100.0000000000000000 ) ) ;
#116 = ADVANCED_BREP_SHAPE_REPRESENTATION ( '8651', ( #163, #180 ), #129 ) ;
#117 = DIRECTION ( 'NONE',  ( 1.000000000000000000, 0.000000000000000000, 0.000000000000000000 ) ) ;
#118 = DIRECTION ( 'NONE',  ( 0.000000000000000000, 0.000000000000000000, 1.000000000000000000 ) ) ;
#119 = DIRECTION ( 'NONE',  ( 1.000000000000000000, 0.000000000000000000, -0.000000000000000000 ) ) ;
#120 = DIRECTION ( 'NONE',  ( 0.000000000000000000, 0.000000000000000000, 1.000000000000000000 ) ) ;
#121 = CARTESIAN_POINT ( 'NONE',  ( 0.5000000000000000000, 6.123233995736766036E-17, 100.0000000000000000 ) ) ;
#122 = CYLINDRICAL_SURFACE ( 'NONE', #37, 0.5000000000000000000 ) ;
#123 = AXIS2_PLACEMENT_3D ( 'NONE', #139, #12, #92 ) ;
#124 = APPROVAL_STATUS ( 'not_yet_approved' ) ;
#125 = MECHANICAL_CONTEXT ( 'NONE', #4, 'mechanical' ) ;
#126 = DATE_AND_TIME ( #220, #185 ) ;
#127 = PRODUCT_DEFINITION_FORMATION_WITH_SPECIFIED_SOURCE ( 'LIBOVOLNÝ', '', #186, .NOT_KNOWN. ) ;
#128 = APPROVAL ( #145, 'NEURÈENÝ' ) ;
#129 =( GEOMETRIC_REPRESENTATION_CONTEXT ( 3 ) GLOBAL_UNCERTAINTY_ASSIGNED_CONTEXT ( ( #88 ) ) GLOBAL_UNIT_ASSIGNED_CONTEXT ( ( #205, #57, #100 ) ) REPRESENTATION_CONTEXT ( 'NONE', 'WORKASPACE' ) );
#130 = ADVANCED_FACE ( 'NONE', ( #173, #71 ), #191, .T. ) ;
#131 = CC_DESIGN_DATE_AND_TIME_ASSIGNMENT ( #197, #36, ( #245 ) ) ;
#132 = ORIENTED_EDGE ( 'NONE', *, *, #196, .T. ) ;
#133 = PRODUCT_DEFINITION_SHAPE ( 'NONE', 'NONE',  #245 ) ;
#134 = EDGE_CURVE ( 'NONE', #47, #165, #33, .T. ) ;
#135 = DIRECTION ( 'NONE',  ( -0.000000000000000000, -0.000000000000000000, -1.000000000000000000 ) ) ;
#136 = DIRECTION ( 'NONE',  ( 1.000000000000000000, 0.000000000000000000, 0.000000000000000000 ) ) ;
#137 = CARTESIAN_POINT ( 'NONE',  ( -1.250000000000000000, 0.000000000000000000, 1.199999999999999956 ) ) ;
#138 = CIRCLE ( 'NONE', #54, 0.5000000000000000000 ) ;
#139 = CARTESIAN_POINT ( 'NONE',  ( 0.000000000000000000, 0.000000000000000000, 1.199999999999999956 ) ) ;
#140 = FACE_OUTER_BOUND ( 'NONE', #63, .T. ) ;
#141 = DIRECTION ( 'NONE',  ( 0.000000000000000000, 0.000000000000000000, 1.000000000000000000 ) ) ;
#142 = PLANE ( 'NONE',  #104 ) ;
#143 = DIRECTION ( 'NONE',  ( 0.000000000000000000, 0.000000000000000000, 1.000000000000000000 ) ) ;
#144 = CALENDAR_DATE ( 2023, 31, 1 ) ;
#145 = APPROVAL_STATUS ( 'not_yet_approved' ) ;
#146 = EDGE_CURVE ( 'NONE', #225, #150, #65, .T. ) ;
#147 = CC_DESIGN_APPROVAL ( #128, ( #109 ) ) ;
#148 = PERSON_AND_ORGANIZATION_ROLE ( 'design_supplier' ) ;
#149 = ADVANCED_FACE ( 'NONE', ( #69 ), #122, .T. ) ;
#150 = VERTEX_POINT ( 'NONE', #137 ) ;
#151 = ORIENTED_EDGE ( 'NONE', *, *, #79, .F. ) ;
#152 = VERTEX_POINT ( 'NONE', #195 ) ;
#153 = EDGE_CURVE ( 'NONE', #152, #86, #203, .T. ) ;
#154 = ORIENTED_EDGE ( 'NONE', *, *, #10, .F. ) ;
#155 = CARTESIAN_POINT ( 'NONE',  ( 0.5000000000000000000, 6.123233995736766036E-17, 100.0000000000000000 ) ) ;
#156 = CARTESIAN_POINT ( 'NONE',  ( 0.000000000000000000, 0.000000000000000000, 100.0000000000000000 ) ) ;
#157 = LINE ( 'NONE', #115, #91 ) ;
#158 = CARTESIAN_POINT ( 'NONE',  ( 0.000000000000000000, 0.000000000000000000, 0.000000000000000000 ) ) ;
#159 = LOCAL_TIME ( 10, 59, 53.00000000000000000, #236 ) ;
#160 = PERSON_AND_ORGANIZATION_ROLE ( 'design_owner' ) ;
#161 = CIRCLE ( 'NONE', #82, 1.250000000000000000 ) ;
#162 = PERSON_AND_ORGANIZATION_ROLE ( 'creator' ) ;
#163 = MANIFOLD_SOLID_BREP ( 'Pøidat vysunutím3', #177 ) ;
#164 = DATE_TIME_ROLE ( 'classification_date' ) ;
#165 = VERTEX_POINT ( 'NONE', #93 ) ;
#166 = ORIENTED_EDGE ( 'NONE', *, *, #10, .T. ) ;
#167 = CIRCLE ( 'NONE', #241, 0.5000000000000000000 ) ;
#168 = ORIENTED_EDGE ( 'NONE', *, *, #97, .T. ) ;
#169 = EDGE_LOOP ( 'NONE', ( #132, #166 ) ) ;
#170 = ORIENTED_EDGE ( 'NONE', *, *, #146, .F. ) ;
#171 = DIRECTION ( 'NONE',  ( -0.000000000000000000, -0.000000000000000000, -1.000000000000000000 ) ) ;
#172 = VECTOR ( 'NONE', #194, 1000.000000000000000 ) ;
#173 = FACE_BOUND ( 'NONE', #247, .T. ) ;
#174 = CARTESIAN_POINT ( 'NONE',  ( 0.000000000000000000, 0.000000000000000000, 1.199999999999999956 ) ) ;
#175 = CARTESIAN_POINT ( 'NONE',  ( 0.000000000000000000, 0.000000000000000000, 100.0000000000000000 ) ) ;
#176 = DIRECTION ( 'NONE',  ( -0.000000000000000000, -0.000000000000000000, -1.000000000000000000 ) ) ;
#177 = CLOSED_SHELL ( 'NONE', ( #149, #101, #178, #130, #233, #22, #184 ) ) ;
#178 = ADVANCED_FACE ( 'NONE', ( #140 ), #56, .T. ) ;
#179 = APPROVAL_ROLE ( '' ) ;
#180 = AXIS2_PLACEMENT_3D ( 'NONE', #218, #143, #214 ) ;
#181 = CALENDAR_DATE ( 2023, 31, 1 ) ;
#182 = ORIENTED_EDGE ( 'NONE', *, *, #79, .T. ) ;
#183 = EDGE_LOOP ( 'NONE', ( #187, #61 ) ) ;
#184 = ADVANCED_FACE ( 'NONE', ( #209 ), #29, .T. ) ;
#185 = LOCAL_TIME ( 10, 59, 53.00000000000000000, #222 ) ;
#186 = PRODUCT ( '8651', '8651', '', ( #125 ) ) ;
#187 = ORIENTED_EDGE ( 'NONE', *, *, #84, .F. ) ;
#188 = ORIENTED_EDGE ( 'NONE', *, *, #106, .F. ) ;
#189 = CYLINDRICAL_SURFACE ( 'NONE', #224, 1.250000000000000000 ) ;
#190 = VECTOR ( 'NONE', #230, 1000.000000000000000 ) ;
#191 = PLANE ( 'NONE',  #78 ) ;
#192 = DIRECTION ( 'NONE',  ( 0.000000000000000000, 0.000000000000000000, 1.000000000000000000 ) ) ;
#193 = DIRECTION ( 'NONE',  ( -1.000000000000000000, 0.000000000000000000, 0.000000000000000000 ) ) ;
#194 = DIRECTION ( 'NONE',  ( -0.000000000000000000, -0.000000000000000000, -1.000000000000000000 ) ) ;
#195 = CARTESIAN_POINT ( 'NONE',  ( 1.250000000000000000, 1.530808498934191571E-16, 0.000000000000000000 ) ) ;
#196 = EDGE_CURVE ( 'NONE', #204, #47, #28, .T. ) ;
#197 = DATE_AND_TIME ( #105, #87 ) ;
#198 = AXIS2_PLACEMENT_3D ( 'NONE', #253, #249, #119 ) ;
#199 = COORDINATED_UNIVERSAL_TIME_OFFSET ( 1, 0, .AHEAD. ) ;
#200 = ORIENTED_EDGE ( 'NONE', *, *, #84, .T. ) ;
#201 = CC_DESIGN_DATE_AND_TIME_ASSIGNMENT ( #126, #164, ( #109 ) ) ;
#202 = ORIENTED_EDGE ( 'NONE', *, *, #30, .F. ) ;
#203 = CIRCLE ( 'NONE', #5, 1.250000000000000000 ) ;
#204 = VERTEX_POINT ( 'NONE', #67 ) ;
#205 =( LENGTH_UNIT ( ) NAMED_UNIT ( * ) SI_UNIT ( .MILLI., .METRE. ) );
#206 = DIRECTION ( 'NONE',  ( -1.000000000000000000, 0.000000000000000000, 0.000000000000000000 ) ) ;
#207 = APPLICATION_CONTEXT ( 'configuration controlled 3d designs of mechanical parts and assemblies' ) ;
#208 = DIRECTION ( 'NONE',  ( -0.000000000000000000, -0.000000000000000000, -1.000000000000000000 ) ) ;
#209 = FACE_OUTER_BOUND ( 'NONE', #169, .T. ) ;
#210 = LOCAL_TIME ( 10, 59, 53.00000000000000000, #219 ) ;
#211 = CARTESIAN_POINT ( 'NONE',  ( 0.000000000000000000, 0.000000000000000000, 1.199999999999999956 ) ) ;
#212 = DIRECTION ( 'NONE',  ( 1.000000000000000000, 0.000000000000000000, -0.000000000000000000 ) ) ;
#213 = CARTESIAN_POINT ( 'NONE',  ( 0.000000000000000000, 0.000000000000000000, 0.000000000000000000 ) ) ;
#214 = DIRECTION ( 'NONE',  ( 1.000000000000000000, 0.000000000000000000, 0.000000000000000000 ) ) ;
#215 = AXIS2_PLACEMENT_3D ( 'NONE', #174, #171, #193 ) ;
#216 = CC_DESIGN_PERSON_AND_ORGANIZATION_ASSIGNMENT ( #80, #162, ( #245 ) ) ;
#217 = DATE_AND_TIME ( #144, #159 ) ;
#218 = CARTESIAN_POINT ( 'NONE',  ( 0.000000000000000000, 0.000000000000000000, 0.000000000000000000 ) ) ;
#219 = COORDINATED_UNIVERSAL_TIME_OFFSET ( 1, 0, .AHEAD. ) ;
#220 = CALENDAR_DATE ( 2023, 31, 1 ) ;
#221 = LOCAL_TIME ( 10, 59, 53.00000000000000000, #199 ) ;
#222 = COORDINATED_UNIVERSAL_TIME_OFFSET ( 1, 0, .AHEAD. ) ;
#223 = VERTEX_POINT ( 'NONE', #232 ) ;
#224 = AXIS2_PLACEMENT_3D ( 'NONE', #50, #135, #234 ) ;
#225 = VERTEX_POINT ( 'NONE', #73 ) ;
#226 = ORIENTED_EDGE ( 'NONE', *, *, #146, .T. ) ;
#227 = ORIENTED_EDGE ( 'NONE', *, *, #30, .T. ) ;
#228 = CARTESIAN_POINT ( 'NONE',  ( 0.000000000000000000, 0.000000000000000000, 1.199999999999999956 ) ) ;
#229 = DIRECTION ( 'NONE',  ( 0.000000000000000000, 0.000000000000000000, 1.000000000000000000 ) ) ;
#230 = DIRECTION ( 'NONE',  ( -0.000000000000000000, -0.000000000000000000, -1.000000000000000000 ) ) ;
#231 = FACE_OUTER_BOUND ( 'NONE', #107, .T. ) ;
#232 = CARTESIAN_POINT ( 'NONE',  ( -0.5000000000000000000, 0.000000000000000000, 1.199999999999999956 ) ) ;
#233 = ADVANCED_FACE ( 'NONE', ( #235 ), #142, .F. ) ;
#234 = DIRECTION ( 'NONE',  ( -1.000000000000000000, 0.000000000000000000, 0.000000000000000000 ) ) ;
#235 = FACE_OUTER_BOUND ( 'NONE', #183, .T. ) ;
#236 = COORDINATED_UNIVERSAL_TIME_OFFSET ( 1, 0, .AHEAD. ) ;
#237 = CALENDAR_DATE ( 2023, 31, 1 ) ;
#238 = APPROVAL_STATUS ( 'not_yet_approved' ) ;
#239 = PERSON_AND_ORGANIZATION ( #76, #62 ) ;
#240 = APPROVAL_ROLE ( '' ) ;
#241 = AXIS2_PLACEMENT_3D ( 'NONE', #27, #229, #95 ) ;
#242 = SHAPE_DEFINITION_REPRESENTATION ( #133, #116 ) ;
#243 = ORIENTED_EDGE ( 'NONE', *, *, #153, .T. ) ;
#244 = APPROVAL_PERSON_ORGANIZATION ( #103, #43, #60 ) ;
#245 = PRODUCT_DEFINITION ( 'NEZNÁMÝ', '', #127, #114 ) ;
#246 = EDGE_LOOP ( 'NONE', ( #112, #226 ) ) ;
#247 = EDGE_LOOP ( 'NONE', ( #151, #24 ) ) ;
#248 = CIRCLE ( 'NONE', #14, 0.5000000000000000000 ) ;
#249 = DIRECTION ( 'NONE',  ( 0.000000000000000000, 0.000000000000000000, 1.000000000000000000 ) ) ;
#250 = DIRECTION ( 'NONE',  ( 1.000000000000000000, 0.000000000000000000, 0.000000000000000000 ) ) ;
#251 = CARTESIAN_POINT ( 'NONE',  ( -1.250000000000000000, 0.000000000000000000, 0.000000000000000000 ) ) ;
#252 = DIRECTION ( 'NONE',  ( -0.000000000000000000, -0.000000000000000000, -1.000000000000000000 ) ) ;
#253 = CARTESIAN_POINT ( 'NONE',  ( 0.000000000000000000, 0.000000000000000000, 100.0000000000000000 ) ) ;
#254 = CIRCLE ( 'NONE', #123, 1.250000000000000000 ) ;
#255 = DIRECTION ( 'NONE',  ( 1.000000000000000000, 0.000000000000000000, -0.000000000000000000 ) ) ;
ENDSEC;
END-ISO-10303-21;
