ISO-10303-21;
HEADER;
FILE_DESCRIPTION (( 'STEP AP203' ),
    '1' );
FILE_NAME ('d3fe.STEP',
    '2023-02-13T15:58:38',
    ( '' ),
    ( '' ),
    'SwSTEP 2.0',
    'SolidWorks 2019',
    '' );
FILE_SCHEMA (( 'CONFIG_CONTROL_DESIGN' ));
ENDSEC;

DATA;
#1 = FACE_OUTER_BOUND ( 'NONE', #89, .T. ) ;
#2 = EDGE_CURVE ( 'NONE', #120, #76, #252, .T. ) ;
#3 = AXIS2_PLACEMENT_3D ( 'NONE', #123, #163, #109 ) ;
#4 = ADVANCED_FACE ( 'NONE', ( #74 ), #243, .T. ) ;
#5 = DIRECTION ( 'NONE',  ( 0.000000000000000000, 0.000000000000000000, 1.000000000000000000 ) ) ;
#6 = COORDINATED_UNIVERSAL_TIME_OFFSET ( 1, 0, .AHEAD. ) ;
#7 = DIRECTION ( 'NONE',  ( 1.000000000000000000, 0.000000000000000000, 0.000000000000000000 ) ) ;
#8 = CARTESIAN_POINT ( 'NONE',  ( 0.000000000000000000, 0.000000000000000000, 2.000000000000000000 ) ) ;
#9 = ADVANCED_BREP_SHAPE_REPRESENTATION ( 'd3fe', ( #199, #11 ), #201 ) ;
#10 = DIRECTION ( 'NONE',  ( 0.000000000000000000, 0.000000000000000000, 1.000000000000000000 ) ) ;
#11 = AXIS2_PLACEMENT_3D ( 'NONE', #23, #20, #45 ) ;
#13 = PRODUCT ( 'd3fe', 'd3fe', '', ( #223 ) ) ;
#12 = APPROVAL_PERSON_ORGANIZATION ( #32, #68, #92 ) ;
#14 = CARTESIAN_POINT ( 'NONE',  ( 0.000000000000000000, 0.000000000000000000, 2.000000000000000000 ) ) ;
#15 = DIRECTION ( 'NONE',  ( 1.000000000000000000, 0.000000000000000000, 0.000000000000000000 ) ) ;
#16 = AXIS2_PLACEMENT_3D ( 'NONE', #41, #111, #213 ) ;
#17 = PERSON_AND_ORGANIZATION ( #218, #90 ) ;
#18 = DIRECTION ( 'NONE',  ( 1.000000000000000000, 0.000000000000000000, 0.000000000000000000 ) ) ;
#19 = CARTESIAN_POINT ( 'NONE',  ( -1.100000000000000089, 0.000000000000000000, 125.0000000000000000 ) ) ;
#20 = DIRECTION ( 'NONE',  ( 0.000000000000000000, 0.000000000000000000, 1.000000000000000000 ) ) ;
#21 = ORIENTED_EDGE ( 'NONE', *, *, #35, .T. ) ;
#22 = DIRECTION ( 'NONE',  ( 1.000000000000000000, 0.000000000000000000, -0.000000000000000000 ) ) ;
#23 = CARTESIAN_POINT ( 'NONE',  ( 0.000000000000000000, 0.000000000000000000, 0.000000000000000000 ) ) ;
#24 = EDGE_LOOP ( 'NONE', ( #146, #183, #225, #82 ) ) ;
#25 = LOCAL_TIME ( 16, 58, 38.00000000000000000, #137 ) ;
#26 = DIRECTION ( 'NONE',  ( -1.000000000000000000, 0.000000000000000000, 0.000000000000000000 ) ) ;
#27 = EDGE_CURVE ( 'NONE', #76, #29, #195, .T. ) ;
#28 = DIRECTION ( 'NONE',  ( -0.000000000000000000, -0.000000000000000000, -1.000000000000000000 ) ) ;
#29 = VERTEX_POINT ( 'NONE', #143 ) ;
#30 = CC_DESIGN_DATE_AND_TIME_ASSIGNMENT ( #220, #56, ( #37 ) ) ;
#31 = EDGE_LOOP ( 'NONE', ( #66, #203, #192, #170 ) ) ;
#32 = PERSON_AND_ORGANIZATION ( #218, #90 ) ;
#33 = CYLINDRICAL_SURFACE ( 'NONE', #55, 2.500000000000000000 ) ;
#34 = VECTOR ( 'NONE', #100, 1000.000000000000000 ) ;
#35 = EDGE_CURVE ( 'NONE', #124, #105, #184, .T. ) ;
#36 = PLANE ( 'NONE',  #233 ) ;
#37 = SECURITY_CLASSIFICATION ( '', '', #87 ) ;
#38 = CARTESIAN_POINT ( 'NONE',  ( 0.000000000000000000, 0.000000000000000000, 2.000000000000000000 ) ) ;
#39 = DATE_AND_TIME ( #150, #139 ) ;
#40 = PRODUCT_DEFINITION ( 'NEZNÁMÝ', '', #159, #113 ) ;
#41 = CARTESIAN_POINT ( 'NONE',  ( 0.000000000000000000, 0.000000000000000000, 2.000000000000000000 ) ) ;
#42 = LOCAL_TIME ( 16, 58, 38.00000000000000000, #180 ) ;
#43 = DIRECTION ( 'NONE',  ( -1.000000000000000000, 0.000000000000000000, 0.000000000000000000 ) ) ;
#44 = APPLICATION_PROTOCOL_DEFINITION ( 'international standard', 'config_control_design', 1994, #154 ) ;
#45 = DIRECTION ( 'NONE',  ( 1.000000000000000000, 0.000000000000000000, 0.000000000000000000 ) ) ;
#46 = CC_DESIGN_PERSON_AND_ORGANIZATION_ASSIGNMENT ( #94, #205, ( #159 ) ) ;
#47 = COORDINATED_UNIVERSAL_TIME_OFFSET ( 1, 0, .AHEAD. ) ;
#48 = APPROVAL_STATUS ( 'not_yet_approved' ) ;
#49 = ORIENTED_EDGE ( 'NONE', *, *, #162, .T. ) ;
#50 = PLANE ( 'NONE',  #83 ) ;
#51 = CARTESIAN_POINT ( 'NONE',  ( -2.500000000000000000, 0.000000000000000000, 2.000000000000000000 ) ) ;
#52 = ORIENTED_EDGE ( 'NONE', *, *, #174, .T. ) ;
#53 = PERSON_AND_ORGANIZATION ( #218, #90 ) ;
#54 = AXIS2_PLACEMENT_3D ( 'NONE', #181, #232, #63 ) ;
#55 = AXIS2_PLACEMENT_3D ( 'NONE', #8, #165, #75 ) ;
#56 = DATE_TIME_ROLE ( 'classification_date' ) ;
#57 = CARTESIAN_POINT ( 'NONE',  ( -2.500000000000000000, 0.000000000000000000, 2.000000000000000000 ) ) ;
#58 = CC_DESIGN_APPROVAL ( #68, ( #37 ) ) ;
#59 = FACE_OUTER_BOUND ( 'NONE', #24, .T. ) ;
#60 = CARTESIAN_POINT ( 'NONE',  ( 0.000000000000000000, 0.000000000000000000, 125.0000000000000000 ) ) ;
#61 = DIRECTION ( 'NONE',  ( -0.000000000000000000, -0.000000000000000000, -1.000000000000000000 ) ) ;
#62 = AXIS2_PLACEMENT_3D ( 'NONE', #161, #10, #77 ) ;
#63 = DIRECTION ( 'NONE',  ( 1.000000000000000000, 0.000000000000000000, 0.000000000000000000 ) ) ;
#64 = APPROVAL_ROLE ( '' ) ;
#65 = CIRCLE ( 'NONE', #98, 1.100000000000000089 ) ;
#66 = ORIENTED_EDGE ( 'NONE', *, *, #106, .F. ) ;
#67 = CARTESIAN_POINT ( 'NONE',  ( 2.500000000000000000, 3.061616997868383141E-16, 0.000000000000000000 ) ) ;
#68 = APPROVAL ( #72, 'NEURÈENÝ' ) ;
#69 = ORIENTED_EDGE ( 'NONE', *, *, #174, .F. ) ;
#70 = CARTESIAN_POINT ( 'NONE',  ( 1.100000000000000089, 1.347111479062088503E-16, 125.0000000000000000 ) ) ;
#71 = FACE_OUTER_BOUND ( 'NONE', #155, .T. ) ;
#72 = APPROVAL_STATUS ( 'not_yet_approved' ) ;
#73 = CIRCLE ( 'NONE', #176, 2.500000000000000000 ) ;
#74 = FACE_OUTER_BOUND ( 'NONE', #104, .T. ) ;
#75 = DIRECTION ( 'NONE',  ( -1.000000000000000000, 0.000000000000000000, 0.000000000000000000 ) ) ;
#76 = VERTEX_POINT ( 'NONE', #178 ) ;
#77 = DIRECTION ( 'NONE',  ( 1.000000000000000000, 0.000000000000000000, -0.000000000000000000 ) ) ;
#78 = CC_DESIGN_DATE_AND_TIME_ASSIGNMENT ( #39, #99, ( #40 ) ) ;
#79 = PERSON_AND_ORGANIZATION ( #218, #90 ) ;
#80 = FACE_OUTER_BOUND ( 'NONE', #236, .T. ) ;
#81 = ADVANCED_FACE ( 'NONE', ( #80 ), #97, .T. ) ;
#82 = ORIENTED_EDGE ( 'NONE', *, *, #162, .F. ) ;
#83 = AXIS2_PLACEMENT_3D ( 'NONE', #60, #130, #22 ) ;
#84 = AXIS2_PLACEMENT_3D ( 'NONE', #38, #245, #210 ) ;
#85 = ORIENTED_EDGE ( 'NONE', *, *, #151, .T. ) ;
#86 = ORIENTED_EDGE ( 'NONE', *, *, #35, .F. ) ;
#87 = SECURITY_CLASSIFICATION_LEVEL ( 'unclassified' ) ;
#88 = AXIS2_PLACEMENT_3D ( 'NONE', #226, #229, #26 ) ;
#89 = EDGE_LOOP ( 'NONE', ( #85, #134 ) ) ;
#90 = ORGANIZATION ( 'NEURÈENÝ', 'NEURÈENÝ', '' ) ;
#91 = CC_DESIGN_SECURITY_CLASSIFICATION ( #37, ( #159 ) ) ;
#92 = APPROVAL_ROLE ( '' ) ;
#93 = UNCERTAINTY_MEASURE_WITH_UNIT (LENGTH_MEASURE( 1.000000000000000082E-05 ), #250, 'distance_accuracy_value', 'NONE');
#94 = PERSON_AND_ORGANIZATION ( #218, #90 ) ;
#95 = FACE_OUTER_BOUND ( 'NONE', #31, .T. ) ;
#96 = PERSON_AND_ORGANIZATION_ROLE ( 'classification_officer' ) ;
#97 = CYLINDRICAL_SURFACE ( 'NONE', #129, 1.100000000000000089 ) ;
#98 = AXIS2_PLACEMENT_3D ( 'NONE', #189, #128, #208 ) ;
#99 = DATE_TIME_ROLE ( 'creation_date' ) ;
#100 = DIRECTION ( 'NONE',  ( -0.000000000000000000, -0.000000000000000000, -1.000000000000000000 ) ) ;
#101 = APPROVAL_ROLE ( '' ) ;
#102 = CARTESIAN_POINT ( 'NONE',  ( 1.100000000000000089, 1.347111479062088503E-16, 125.0000000000000000 ) ) ;
#103 = VECTOR ( 'NONE', #207, 1000.000000000000000 ) ;
#104 = EDGE_LOOP ( 'NONE', ( #251, #246, #49, #21 ) ) ;
#105 = VERTEX_POINT ( 'NONE', #67 ) ;
#106 = EDGE_CURVE ( 'NONE', #120, #196, #217, .T. ) ;
#107 = FACE_OUTER_BOUND ( 'NONE', #241, .T. ) ;
#108 = CC_DESIGN_PERSON_AND_ORGANIZATION_ASSIGNMENT ( #17, #96, ( #37 ) ) ;
#109 = DIRECTION ( 'NONE',  ( 1.000000000000000000, 0.000000000000000000, 0.000000000000000000 ) ) ;
#110 = EDGE_CURVE ( 'NONE', #105, #124, #160, .T. ) ;
#111 = DIRECTION ( 'NONE',  ( -0.000000000000000000, -0.000000000000000000, -1.000000000000000000 ) ) ;
#112 = ADVANCED_FACE ( 'NONE', ( #107 ), #185, .F. ) ;
#113 = DESIGN_CONTEXT ( 'detailed design', #154, 'design' ) ;
#114 = CARTESIAN_POINT ( 'NONE',  ( -2.500000000000000000, 0.000000000000000000, 0.000000000000000000 ) ) ;
#115 = APPROVAL_STATUS ( 'not_yet_approved' ) ;
#116 = EDGE_LOOP ( 'NONE', ( #148, #69 ) ) ;
#117 = ADVANCED_FACE ( 'NONE', ( #95 ), #215, .T. ) ;
#118 = APPROVAL_DATE_TIME ( #133, #68 ) ;
#119 = SHAPE_DEFINITION_REPRESENTATION ( #121, #9 ) ;
#120 = VERTEX_POINT ( 'NONE', #102 ) ;
#121 = PRODUCT_DEFINITION_SHAPE ( 'NONE', 'NONE',  #40 ) ;
#122 = EDGE_CURVE ( 'NONE', #172, #157, #230, .T. ) ;
#123 = CARTESIAN_POINT ( 'NONE',  ( 0.000000000000000000, 0.000000000000000000, 125.0000000000000000 ) ) ;
#124 = VERTEX_POINT ( 'NONE', #114 ) ;
#125 = DIRECTION ( 'NONE',  ( 0.000000000000000000, 0.000000000000000000, 1.000000000000000000 ) ) ;
#126 = CC_DESIGN_PERSON_AND_ORGANIZATION_ASSIGNMENT ( #79, #177, ( #40 ) ) ;
#127 = CALENDAR_DATE ( 2023, 13, 2 ) ;
#128 = DIRECTION ( 'NONE',  ( 0.000000000000000000, 0.000000000000000000, 1.000000000000000000 ) ) ;
#129 = AXIS2_PLACEMENT_3D ( 'NONE', #147, #61, #43 ) ;
#130 = DIRECTION ( 'NONE',  ( 0.000000000000000000, 0.000000000000000000, 1.000000000000000000 ) ) ;
#131 = CARTESIAN_POINT ( 'NONE',  ( 0.000000000000000000, 0.000000000000000000, 125.0000000000000000 ) ) ;
#132 = ORIENTED_EDGE ( 'NONE', *, *, #249, .T. ) ;
#133 = DATE_AND_TIME ( #136, #228 ) ;
#134 = ORIENTED_EDGE ( 'NONE', *, *, #2, .T. ) ;
#135 = CC_DESIGN_APPROVAL ( #202, ( #159 ) ) ;
#136 = CALENDAR_DATE ( 2023, 13, 2 ) ;
#137 = COORDINATED_UNIVERSAL_TIME_OFFSET ( 1, 0, .AHEAD. ) ;
#138 = DIRECTION ( 'NONE',  ( 1.000000000000000000, 0.000000000000000000, 0.000000000000000000 ) ) ;
#139 = LOCAL_TIME ( 16, 58, 38.00000000000000000, #47 ) ;
#140 = LINE ( 'NONE', #57, #103 ) ;
#141 = CARTESIAN_POINT ( 'NONE',  ( 0.000000000000000000, 0.000000000000000000, 2.000000000000000000 ) ) ;
#142 = CALENDAR_DATE ( 2023, 13, 2 ) ;
#143 = CARTESIAN_POINT ( 'NONE',  ( -1.100000000000000089, 0.000000000000000000, 2.000000000000000000 ) ) ;
#144 = LINE ( 'NONE', #179, #164 ) ;
#145 = AXIS2_PLACEMENT_3D ( 'NONE', #156, #240, #138 ) ;
#146 = ORIENTED_EDGE ( 'NONE', *, *, #122, .F. ) ;
#147 = CARTESIAN_POINT ( 'NONE',  ( 0.000000000000000000, 0.000000000000000000, 125.0000000000000000 ) ) ;
#148 = ORIENTED_EDGE ( 'NONE', *, *, #212, .F. ) ;
#149 = ADVANCED_FACE ( 'NONE', ( #1 ), #50, .T. ) ;
#150 = CALENDAR_DATE ( 2023, 13, 2 ) ;
#151 = EDGE_CURVE ( 'NONE', #76, #120, #219, .T. ) ;
#152 = CC_DESIGN_APPROVAL ( #235, ( #40 ) ) ;
#153 = ORIENTED_EDGE ( 'NONE', *, *, #110, .F. ) ;
#154 = APPLICATION_CONTEXT ( 'configuration controlled 3d designs of mechanical parts and assemblies' ) ;
#155 = EDGE_LOOP ( 'NONE', ( #132, #254 ) ) ;
#156 = CARTESIAN_POINT ( 'NONE',  ( 0.000000000000000000, 0.000000000000000000, 0.000000000000000000 ) ) ;
#157 = VERTEX_POINT ( 'NONE', #51 ) ;
#158 = ORIENTED_EDGE ( 'NONE', *, *, #106, .T. ) ;
#159 = PRODUCT_DEFINITION_FORMATION_WITH_SPECIFIED_SOURCE ( 'LIBOVOLNÝ', '', #13, .NOT_KNOWN. ) ;
#160 = CIRCLE ( 'NONE', #145, 2.500000000000000000 ) ;
#161 = CARTESIAN_POINT ( 'NONE',  ( 0.000000000000000000, 0.000000000000000000, 0.000000000000000000 ) ) ;
#162 = EDGE_CURVE ( 'NONE', #157, #124, #140, .T. ) ;
#163 = DIRECTION ( 'NONE',  ( 0.000000000000000000, 0.000000000000000000, 1.000000000000000000 ) ) ;
#164 = VECTOR ( 'NONE', #191, 1000.000000000000000 ) ;
#165 = DIRECTION ( 'NONE',  ( -0.000000000000000000, -0.000000000000000000, -1.000000000000000000 ) ) ;
#166 = FACE_BOUND ( 'NONE', #116, .T. ) ;
#167 = DIRECTION ( 'NONE',  ( 1.000000000000000000, 0.000000000000000000, -0.000000000000000000 ) ) ;
#168 = LOCAL_TIME ( 16, 58, 38.00000000000000000, #200 ) ;
#169 = PERSON_AND_ORGANIZATION ( #218, #90 ) ;
#170 = ORIENTED_EDGE ( 'NONE', *, *, #212, .T. ) ;
#171 = CARTESIAN_POINT ( 'NONE',  ( 0.000000000000000000, 0.000000000000000000, 0.000000000000000000 ) ) ;
#172 = VERTEX_POINT ( 'NONE', #242 ) ;
#173 = PERSON_AND_ORGANIZATION ( #218, #90 ) ;
#174 = EDGE_CURVE ( 'NONE', #196, #29, #65, .T. ) ;
#175 =( NAMED_UNIT ( * ) PLANE_ANGLE_UNIT ( ) SI_UNIT ( $, .RADIAN. ) );
#176 = AXIS2_PLACEMENT_3D ( 'NONE', #141, #187, #15 ) ;
#177 = PERSON_AND_ORGANIZATION_ROLE ( 'creator' ) ;
#178 = CARTESIAN_POINT ( 'NONE',  ( -1.100000000000000089, 0.000000000000000000, 125.0000000000000000 ) ) ;
#179 = CARTESIAN_POINT ( 'NONE',  ( 2.500000000000000000, 3.061616997868383141E-16, 2.000000000000000000 ) ) ;
#180 = COORDINATED_UNIVERSAL_TIME_OFFSET ( 1, 0, .AHEAD. ) ;
#181 = CARTESIAN_POINT ( 'NONE',  ( 0.000000000000000000, 0.000000000000000000, 2.000000000000000000 ) ) ;
#182 = ORIENTED_EDGE ( 'NONE', *, *, #2, .F. ) ;
#183 = ORIENTED_EDGE ( 'NONE', *, *, #255, .T. ) ;
#184 = CIRCLE ( 'NONE', #234, 2.500000000000000000 ) ;
#185 = PLANE ( 'NONE',  #62 ) ;
#186 = PERSON_AND_ORGANIZATION_ROLE ( 'creator' ) ;
#187 = DIRECTION ( 'NONE',  ( 0.000000000000000000, 0.000000000000000000, 1.000000000000000000 ) ) ;
#188 = APPLICATION_CONTEXT ( 'configuration controlled 3d designs of mechanical parts and assemblies' ) ;
#189 = CARTESIAN_POINT ( 'NONE',  ( 0.000000000000000000, 0.000000000000000000, 2.000000000000000000 ) ) ;
#190 = APPROVAL_DATE_TIME ( #206, #202 ) ;
#191 = DIRECTION ( 'NONE',  ( -0.000000000000000000, -0.000000000000000000, -1.000000000000000000 ) ) ;
#192 = ORIENTED_EDGE ( 'NONE', *, *, #27, .T. ) ;
#193 = CIRCLE ( 'NONE', #84, 1.100000000000000089 ) ;
#194 = APPROVAL_PERSON_ORGANIZATION ( #169, #202, #64 ) ;
#195 = LINE ( 'NONE', #19, #34 ) ;
#196 = VERTEX_POINT ( 'NONE', #247 ) ;
#197 = DATE_AND_TIME ( #231, #42 ) ;
#198 = PRODUCT_RELATED_PRODUCT_CATEGORY ( 'detail', '', ( #13 ) ) ;
#199 = MANIFOLD_SOLID_BREP ( 'Pøidat vysunutím3', #239 ) ;
#200 = COORDINATED_UNIVERSAL_TIME_OFFSET ( 1, 0, .AHEAD. ) ;
#201 =( GEOMETRIC_REPRESENTATION_CONTEXT ( 3 ) GLOBAL_UNCERTAINTY_ASSIGNED_CONTEXT ( ( #93 ) ) GLOBAL_UNIT_ASSIGNED_CONTEXT ( ( #250, #175, #211 ) ) REPRESENTATION_CONTEXT ( 'NONE', 'WORKASPACE' ) );
#202 = APPROVAL ( #115, 'NEURÈENÝ' ) ;
#203 = ORIENTED_EDGE ( 'NONE', *, *, #151, .F. ) ;
#204 = ADVANCED_FACE ( 'NONE', ( #166, #71 ), #36, .T. ) ;
#205 = PERSON_AND_ORGANIZATION_ROLE ( 'design_supplier' ) ;
#206 = DATE_AND_TIME ( #127, #168 ) ;
#207 = DIRECTION ( 'NONE',  ( -0.000000000000000000, -0.000000000000000000, -1.000000000000000000 ) ) ;
#208 = DIRECTION ( 'NONE',  ( 1.000000000000000000, 0.000000000000000000, 0.000000000000000000 ) ) ;
#209 = ADVANCED_FACE ( 'NONE', ( #59 ), #33, .T. ) ;
#210 = DIRECTION ( 'NONE',  ( 1.000000000000000000, 0.000000000000000000, 0.000000000000000000 ) ) ;
#211 =( NAMED_UNIT ( * ) SI_UNIT ( $, .STERADIAN. ) SOLID_ANGLE_UNIT ( ) );
#212 = EDGE_CURVE ( 'NONE', #29, #196, #193, .T. ) ;
#213 = DIRECTION ( 'NONE',  ( -1.000000000000000000, 0.000000000000000000, 0.000000000000000000 ) ) ;
#214 = PERSON_AND_ORGANIZATION ( #218, #90 ) ;
#215 = CYLINDRICAL_SURFACE ( 'NONE', #88, 1.100000000000000089 ) ;
#216 = APPROVAL_DATE_TIME ( #197, #235 ) ;
#217 = LINE ( 'NONE', #70, #244 ) ;
#218 = PERSON ( 'NEURÈENÝ', 'NEURÈENÝ', 'NEURÈENÝ', ('NEURÈENÝ'), ('NEURÈENÝ'), ('NEURÈENÝ') ) ;
#219 = CIRCLE ( 'NONE', #222, 1.100000000000000089 ) ;
#220 = DATE_AND_TIME ( #142, #25 ) ;
#221 = CC_DESIGN_PERSON_AND_ORGANIZATION_ASSIGNMENT ( #173, #224, ( #13 ) ) ;
#222 = AXIS2_PLACEMENT_3D ( 'NONE', #131, #5, #7 ) ;
#223 = MECHANICAL_CONTEXT ( 'NONE', #188, 'mechanical' ) ;
#224 = PERSON_AND_ORGANIZATION_ROLE ( 'design_owner' ) ;
#225 = ORIENTED_EDGE ( 'NONE', *, *, #110, .T. ) ;
#226 = CARTESIAN_POINT ( 'NONE',  ( 0.000000000000000000, 0.000000000000000000, 125.0000000000000000 ) ) ;
#227 = APPROVAL_PERSON_ORGANIZATION ( #214, #235, #101 ) ;
#228 = LOCAL_TIME ( 16, 58, 38.00000000000000000, #6 ) ;
#229 = DIRECTION ( 'NONE',  ( -0.000000000000000000, -0.000000000000000000, -1.000000000000000000 ) ) ;
#230 = CIRCLE ( 'NONE', #54, 2.500000000000000000 ) ;
#231 = CALENDAR_DATE ( 2023, 13, 2 ) ;
#232 = DIRECTION ( 'NONE',  ( 0.000000000000000000, 0.000000000000000000, 1.000000000000000000 ) ) ;
#233 = AXIS2_PLACEMENT_3D ( 'NONE', #14, #125, #167 ) ;
#234 = AXIS2_PLACEMENT_3D ( 'NONE', #171, #253, #18 ) ;
#235 = APPROVAL ( #48, 'NEURÈENÝ' ) ;
#236 = EDGE_LOOP ( 'NONE', ( #182, #158, #52, #237 ) ) ;
#237 = ORIENTED_EDGE ( 'NONE', *, *, #27, .F. ) ;
#238 = CC_DESIGN_PERSON_AND_ORGANIZATION_ASSIGNMENT ( #53, #186, ( #159 ) ) ;
#239 = CLOSED_SHELL ( 'NONE', ( #81, #209, #4, #204, #112, #117, #149 ) ) ;
#240 = DIRECTION ( 'NONE',  ( 0.000000000000000000, 0.000000000000000000, 1.000000000000000000 ) ) ;
#241 = EDGE_LOOP ( 'NONE', ( #86, #153 ) ) ;
#242 = CARTESIAN_POINT ( 'NONE',  ( 2.500000000000000000, 3.061616997868383141E-16, 2.000000000000000000 ) ) ;
#243 = CYLINDRICAL_SURFACE ( 'NONE', #16, 2.500000000000000000 ) ;
#244 = VECTOR ( 'NONE', #28, 1000.000000000000000 ) ;
#245 = DIRECTION ( 'NONE',  ( 0.000000000000000000, 0.000000000000000000, 1.000000000000000000 ) ) ;
#246 = ORIENTED_EDGE ( 'NONE', *, *, #249, .F. ) ;
#247 = CARTESIAN_POINT ( 'NONE',  ( 1.100000000000000089, 1.347111479062088503E-16, 2.000000000000000000 ) ) ;
#248 = APPLICATION_PROTOCOL_DEFINITION ( 'international standard', 'config_control_design', 1994, #188 ) ;
#249 = EDGE_CURVE ( 'NONE', #157, #172, #73, .T. ) ;
#250 =( LENGTH_UNIT ( ) NAMED_UNIT ( * ) SI_UNIT ( .MILLI., .METRE. ) );
#251 = ORIENTED_EDGE ( 'NONE', *, *, #255, .F. ) ;
#252 = CIRCLE ( 'NONE', #3, 1.100000000000000089 ) ;
#253 = DIRECTION ( 'NONE',  ( 0.000000000000000000, 0.000000000000000000, 1.000000000000000000 ) ) ;
#254 = ORIENTED_EDGE ( 'NONE', *, *, #122, .T. ) ;
#255 = EDGE_CURVE ( 'NONE', #172, #105, #144, .T. ) ;
ENDSEC;
END-ISO-10303-21;
