ISO-10303-21;
HEADER;
FILE_DESCRIPTION (( 'STEP AP203' ),
    '1' );
FILE_NAME ('ec94.STEP',
    '2023-02-13T15:59:44',
    ( '' ),
    ( '' ),
    'SwSTEP 2.0',
    'SolidWorks 2019',
    '' );
FILE_SCHEMA (( 'CONFIG_CONTROL_DESIGN' ));
ENDSEC;

DATA;
#1 = CALENDAR_DATE ( 2023, 13, 2 ) ;
#2 = SHAPE_DEFINITION_REPRESENTATION ( #201, #213 ) ;
#3 = EDGE_CURVE ( 'NONE', #83, #123, #254, .T. ) ;
#4 = APPROVAL_PERSON_ORGANIZATION ( #160, #102, #238 ) ;
#5 = PERSON_AND_ORGANIZATION ( #167, #59 ) ;
#6 = EDGE_LOOP ( 'NONE', ( #46, #142, #223, #47 ) ) ;
#7 = CC_DESIGN_PERSON_AND_ORGANIZATION_ASSIGNMENT ( #115, #99, ( #181 ) ) ;
#8 = EDGE_LOOP ( 'NONE', ( #125, #247 ) ) ;
#9 = VECTOR ( 'NONE', #192, 1000.000000000000000 ) ;
#10 = ORIENTED_EDGE ( 'NONE', *, *, #112, .T. ) ;
#11 = EDGE_LOOP ( 'NONE', ( #65, #87 ) ) ;
#12 = EDGE_LOOP ( 'NONE', ( #243, #43 ) ) ;
#13 = APPROVAL_PERSON_ORGANIZATION ( #178, #100, #139 ) ;
#14 = DIRECTION ( 'NONE',  ( 1.000000000000000000, 0.000000000000000000, -0.000000000000000000 ) ) ;
#15 = DIRECTION ( 'NONE',  ( 0.000000000000000000, 0.000000000000000000, 1.000000000000000000 ) ) ;
#16 = CARTESIAN_POINT ( 'NONE',  ( 0.000000000000000000, 0.000000000000000000, 2.000000000000000000 ) ) ;
#17 = CC_DESIGN_PERSON_AND_ORGANIZATION_ASSIGNMENT ( #41, #255, ( #92 ) ) ;
#18 = CARTESIAN_POINT ( 'NONE',  ( 0.000000000000000000, 0.000000000000000000, 0.000000000000000000 ) ) ;
#19 = AXIS2_PLACEMENT_3D ( 'NONE', #174, #250, #106 ) ;
#20 = LOCAL_TIME ( 16, 59, 44.00000000000000000, #81 ) ;
#21 = CARTESIAN_POINT ( 'NONE',  ( 2.000000000000000000, 2.449293598294706414E-16, 2.000000000000000000 ) ) ;
#22 = DATE_AND_TIME ( #1, #20 ) ;
#23 = AXIS2_PLACEMENT_3D ( 'NONE', #230, #15, #229 ) ;
#24 = PERSON_AND_ORGANIZATION ( #167, #59 ) ;
#25 = EDGE_CURVE ( 'NONE', #123, #83, #219, .T. ) ;
#26 = CARTESIAN_POINT ( 'NONE',  ( 0.000000000000000000, 0.000000000000000000, 0.000000000000000000 ) ) ;
#27 = VERTEX_POINT ( 'NONE', #225 ) ;
#28 = ORIENTED_EDGE ( 'NONE', *, *, #3, .F. ) ;
#29 = CARTESIAN_POINT ( 'NONE',  ( 0.000000000000000000, 0.000000000000000000, 125.0000000000000000 ) ) ;
#30 = DIRECTION ( 'NONE',  ( 0.000000000000000000, 0.000000000000000000, 1.000000000000000000 ) ) ;
#31 = CARTESIAN_POINT ( 'NONE',  ( -1.000000000000000000, 0.000000000000000000, 125.0000000000000000 ) ) ;
#32 = FACE_BOUND ( 'NONE', #8, .T. ) ;
#33 = CARTESIAN_POINT ( 'NONE',  ( 0.000000000000000000, 0.000000000000000000, 0.000000000000000000 ) ) ;
#34 = ADVANCED_FACE ( 'NONE', ( #45 ), #126, .T. ) ;
#35 = FACE_OUTER_BOUND ( 'NONE', #188, .T. ) ;
#36 = LINE ( 'NONE', #111, #9 ) ;
#37 = DIRECTION ( 'NONE',  ( -0.000000000000000000, -0.000000000000000000, -1.000000000000000000 ) ) ;
#38 = VECTOR ( 'NONE', #190, 1000.000000000000000 ) ;
#39 = CC_DESIGN_APPROVAL ( #100, ( #134 ) ) ;
#40 = APPROVAL_STATUS ( 'not_yet_approved' ) ;
#41 = PERSON_AND_ORGANIZATION ( #167, #59 ) ;
#42 =( NAMED_UNIT ( * ) PLANE_ANGLE_UNIT ( ) SI_UNIT ( $, .RADIAN. ) );
#43 = ORIENTED_EDGE ( 'NONE', *, *, #25, .T. ) ;
#44 = VERTEX_POINT ( 'NONE', #244 ) ;
#45 = FACE_OUTER_BOUND ( 'NONE', #226, .T. ) ;
#46 = ORIENTED_EDGE ( 'NONE', *, *, #25, .F. ) ;
#47 = ORIENTED_EDGE ( 'NONE', *, *, #61, .F. ) ;
#48 = UNCERTAINTY_MEASURE_WITH_UNIT (LENGTH_MEASURE( 1.000000000000000082E-05 ), #215, 'distance_accuracy_value', 'NONE');
#49 = DIRECTION ( 'NONE',  ( -1.000000000000000000, 0.000000000000000000, 0.000000000000000000 ) ) ;
#50 = EDGE_CURVE ( 'NONE', #103, #44, #68, .T. ) ;
#51 = DIRECTION ( 'NONE',  ( -0.000000000000000000, -0.000000000000000000, -1.000000000000000000 ) ) ;
#52 = FACE_OUTER_BOUND ( 'NONE', #11, .T. ) ;
#53 = DIRECTION ( 'NONE',  ( 1.000000000000000000, 0.000000000000000000, 0.000000000000000000 ) ) ;
#54 = AXIS2_PLACEMENT_3D ( 'NONE', #26, #199, #95 ) ;
#55 = CC_DESIGN_PERSON_AND_ORGANIZATION_ASSIGNMENT ( #177, #60, ( #92 ) ) ;
#56 = APPROVAL_STATUS ( 'not_yet_approved' ) ;
#57 = AXIS2_PLACEMENT_3D ( 'NONE', #149, #251, #132 ) ;
#58 = CIRCLE ( 'NONE', #84, 1.000000000000000000 ) ;
#59 = ORGANIZATION ( 'NEURÈENÝ', 'NEURÈENÝ', '' ) ;
#60 = PERSON_AND_ORGANIZATION_ROLE ( 'creator' ) ;
#61 = EDGE_CURVE ( 'NONE', #83, #27, #208, .T. ) ;
#62 = DESIGN_CONTEXT ( 'detailed design', #222, 'design' ) ;
#63 = ORIENTED_EDGE ( 'NONE', *, *, #242, .F. ) ;
#64 = VECTOR ( 'NONE', #37, 1000.000000000000000 ) ;
#65 = ORIENTED_EDGE ( 'NONE', *, *, #67, .T. ) ;
#66 = DIRECTION ( 'NONE',  ( 1.000000000000000000, 0.000000000000000000, 0.000000000000000000 ) ) ;
#67 = EDGE_CURVE ( 'NONE', #82, #103, #196, .T. ) ;
#68 = LINE ( 'NONE', #145, #173 ) ;
#69 = LOCAL_TIME ( 16, 59, 44.00000000000000000, #220 ) ;
#70 = PRODUCT_RELATED_PRODUCT_CATEGORY ( 'detail', '', ( #181 ) ) ;
#71 = FACE_OUTER_BOUND ( 'NONE', #12, .T. ) ;
#72 = PLANE ( 'NONE',  #57 ) ;
#73 = DIRECTION ( 'NONE',  ( 0.000000000000000000, 0.000000000000000000, 1.000000000000000000 ) ) ;
#74 = CARTESIAN_POINT ( 'NONE',  ( 0.000000000000000000, 0.000000000000000000, 125.0000000000000000 ) ) ;
#75 = DIRECTION ( 'NONE',  ( 1.000000000000000000, 0.000000000000000000, 0.000000000000000000 ) ) ;
#76 = CIRCLE ( 'NONE', #127, 1.000000000000000000 ) ;
#77 = CALENDAR_DATE ( 2023, 13, 2 ) ;
#78 = EDGE_CURVE ( 'NONE', #27, #168, #58, .T. ) ;
#79 = PERSON_AND_ORGANIZATION_ROLE ( 'classification_officer' ) ;
#80 = CALENDAR_DATE ( 2023, 13, 2 ) ;
#81 = COORDINATED_UNIVERSAL_TIME_OFFSET ( 1, 0, .AHEAD. ) ;
#82 = VERTEX_POINT ( 'NONE', #171 ) ;
#83 = VERTEX_POINT ( 'NONE', #90 ) ;
#84 = AXIS2_PLACEMENT_3D ( 'NONE', #248, #91, #113 ) ;
#85 = ORIENTED_EDGE ( 'NONE', *, *, #50, .F. ) ;
#86 = DIRECTION ( 'NONE',  ( 1.000000000000000000, 0.000000000000000000, 0.000000000000000000 ) ) ;
#87 = ORIENTED_EDGE ( 'NONE', *, *, #121, .T. ) ;
#88 = CC_DESIGN_APPROVAL ( #228, ( #200 ) ) ;
#89 = CYLINDRICAL_SURFACE ( 'NONE', #159, 1.000000000000000000 ) ;
#90 = CARTESIAN_POINT ( 'NONE',  ( -1.000000000000000000, 0.000000000000000000, 125.0000000000000000 ) ) ;
#91 = DIRECTION ( 'NONE',  ( 0.000000000000000000, 0.000000000000000000, 1.000000000000000000 ) ) ;
#92 = PRODUCT_DEFINITION_FORMATION_WITH_SPECIFIED_SOURCE ( 'LIBOVOLNÝ', '', #181, .NOT_KNOWN. ) ;
#93 = CARTESIAN_POINT ( 'NONE',  ( 0.000000000000000000, 0.000000000000000000, 2.000000000000000000 ) ) ;
#94 = FACE_OUTER_BOUND ( 'NONE', #162, .T. ) ;
#95 = DIRECTION ( 'NONE',  ( 1.000000000000000000, 0.000000000000000000, 0.000000000000000000 ) ) ;
#96 = DATE_AND_TIME ( #77, #146 ) ;
#97 = DATE_TIME_ROLE ( 'classification_date' ) ;
#98 = APPROVAL_DATE_TIME ( #120, #100 ) ;
#99 = PERSON_AND_ORGANIZATION_ROLE ( 'design_owner' ) ;
#100 = APPROVAL ( #56, 'NEURÈENÝ' ) ;
#101 = ORIENTED_EDGE ( 'NONE', *, *, #129, .T. ) ;
#102 = APPROVAL ( #195, 'NEURÈENÝ' ) ;
#103 = VERTEX_POINT ( 'NONE', #21 ) ;
#104 = DIRECTION ( 'NONE',  ( -0.000000000000000000, -0.000000000000000000, -1.000000000000000000 ) ) ;
#105 = ORIENTED_EDGE ( 'NONE', *, *, #245, .T. ) ;
#106 = DIRECTION ( 'NONE',  ( 1.000000000000000000, 0.000000000000000000, 0.000000000000000000 ) ) ;
#107 = CLOSED_SHELL ( 'NONE', ( #179, #124, #210, #166, #197, #34, #175 ) ) ;
#108 = DIRECTION ( 'NONE',  ( 1.000000000000000000, 0.000000000000000000, 0.000000000000000000 ) ) ;
#109 = MANIFOLD_SOLID_BREP ( 'Pøidat vysunutím3', #107 ) ;
#110 = CARTESIAN_POINT ( 'NONE',  ( 0.000000000000000000, 0.000000000000000000, 2.000000000000000000 ) ) ;
#111 = CARTESIAN_POINT ( 'NONE',  ( 1.000000000000000000, 1.224646799147353207E-16, 125.0000000000000000 ) ) ;
#112 = EDGE_CURVE ( 'NONE', #44, #164, #231, .T. ) ;
#113 = DIRECTION ( 'NONE',  ( 1.000000000000000000, 0.000000000000000000, 0.000000000000000000 ) ) ;
#114 = CC_DESIGN_DATE_AND_TIME_ASSIGNMENT ( #118, #97, ( #134 ) ) ;
#115 = PERSON_AND_ORGANIZATION ( #167, #59 ) ;
#116 = DATE_TIME_ROLE ( 'creation_date' ) ;
#117 = CIRCLE ( 'NONE', #150, 2.000000000000000000 ) ;
#118 = DATE_AND_TIME ( #80, #122 ) ;
#119 = AXIS2_PLACEMENT_3D ( 'NONE', #110, #154, #191 ) ;
#120 = DATE_AND_TIME ( #180, #69 ) ;
#121 = EDGE_CURVE ( 'NONE', #103, #82, #117, .T. ) ;
#122 = LOCAL_TIME ( 16, 59, 44.00000000000000000, #237 ) ;
#123 = VERTEX_POINT ( 'NONE', #234 ) ;
#124 = ADVANCED_FACE ( 'NONE', ( #94 ), #249, .T. ) ;
#125 = ORIENTED_EDGE ( 'NONE', *, *, #78, .F. ) ;
#126 = CYLINDRICAL_SURFACE ( 'NONE', #203, 1.000000000000000000 ) ;
#127 = AXIS2_PLACEMENT_3D ( 'NONE', #152, #232, #133 ) ;
#128 = DIRECTION ( 'NONE',  ( -0.000000000000000000, -0.000000000000000000, -1.000000000000000000 ) ) ;
#129 = EDGE_CURVE ( 'NONE', #82, #164, #214, .T. ) ;
#130 = CARTESIAN_POINT ( 'NONE',  ( -2.000000000000000000, 0.000000000000000000, 2.000000000000000000 ) ) ;
#131 = FACE_OUTER_BOUND ( 'NONE', #6, .T. ) ;
#132 = DIRECTION ( 'NONE',  ( 1.000000000000000000, 0.000000000000000000, -0.000000000000000000 ) ) ;
#133 = DIRECTION ( 'NONE',  ( 1.000000000000000000, 0.000000000000000000, 0.000000000000000000 ) ) ;
#134 = SECURITY_CLASSIFICATION ( '', '', #155 ) ;
#135 = MECHANICAL_CONTEXT ( 'NONE', #184, 'mechanical' ) ;
#136 = PERSON_AND_ORGANIZATION_ROLE ( 'creator' ) ;
#137 = COORDINATED_UNIVERSAL_TIME_OFFSET ( 1, 0, .AHEAD. ) ;
#138 = AXIS2_PLACEMENT_3D ( 'NONE', #29, #186, #66 ) ;
#139 = APPROVAL_ROLE ( '' ) ;
#140 =( NAMED_UNIT ( * ) SI_UNIT ( $, .STERADIAN. ) SOLID_ANGLE_UNIT ( ) );
#141 = AXIS2_PLACEMENT_3D ( 'NONE', #144, #30, #86 ) ;
#142 = ORIENTED_EDGE ( 'NONE', *, *, #242, .T. ) ;
#143 = ORIENTED_EDGE ( 'NONE', *, *, #78, .T. ) ;
#144 = CARTESIAN_POINT ( 'NONE',  ( 0.000000000000000000, 0.000000000000000000, 125.0000000000000000 ) ) ;
#145 = CARTESIAN_POINT ( 'NONE',  ( 2.000000000000000000, 2.449293598294706414E-16, 2.000000000000000000 ) ) ;
#146 = LOCAL_TIME ( 16, 59, 44.00000000000000000, #137 ) ;
#147 = ORIENTED_EDGE ( 'NONE', *, *, #61, .T. ) ;
#148 = DIRECTION ( 'NONE',  ( -0.000000000000000000, -0.000000000000000000, -1.000000000000000000 ) ) ;
#149 = CARTESIAN_POINT ( 'NONE',  ( 0.000000000000000000, 0.000000000000000000, 2.000000000000000000 ) ) ;
#150 = AXIS2_PLACEMENT_3D ( 'NONE', #16, #252, #75 ) ;
#151 = CC_DESIGN_DATE_AND_TIME_ASSIGNMENT ( #216, #116, ( #200 ) ) ;
#152 = CARTESIAN_POINT ( 'NONE',  ( 0.000000000000000000, 0.000000000000000000, 2.000000000000000000 ) ) ;
#153 = DIRECTION ( 'NONE',  ( 0.000000000000000000, 0.000000000000000000, 1.000000000000000000 ) ) ;
#154 = DIRECTION ( 'NONE',  ( -0.000000000000000000, -0.000000000000000000, -1.000000000000000000 ) ) ;
#155 = SECURITY_CLASSIFICATION_LEVEL ( 'unclassified' ) ;
#156 = APPLICATION_PROTOCOL_DEFINITION ( 'international standard', 'config_control_design', 1994, #184 ) ;
#157 = AXIS2_PLACEMENT_3D ( 'NONE', #33, #194, #108 ) ;
#158 = APPROVAL_ROLE ( '' ) ;
#159 = AXIS2_PLACEMENT_3D ( 'NONE', #212, #148, #172 ) ;
#160 = PERSON_AND_ORGANIZATION ( #167, #59 ) ;
#161 = CC_DESIGN_APPROVAL ( #102, ( #92 ) ) ;
#162 = EDGE_LOOP ( 'NONE', ( #204, #224, #10, #241 ) ) ;
#163 = CC_DESIGN_PERSON_AND_ORGANIZATION_ASSIGNMENT ( #24, #79, ( #134 ) ) ;
#164 = VERTEX_POINT ( 'NONE', #209 ) ;
#165 = ORIENTED_EDGE ( 'NONE', *, *, #245, .F. ) ;
#166 = ADVANCED_FACE ( 'NONE', ( #32, #52 ), #72, .T. ) ;
#167 = PERSON ( 'NEURÈENÝ', 'NEURÈENÝ', 'NEURÈENÝ', ('NEURÈENÝ'), ('NEURÈENÝ'), ('NEURÈENÝ') ) ;
#168 = VERTEX_POINT ( 'NONE', #189 ) ;
#169 = AXIS2_PLACEMENT_3D ( 'NONE', #18, #153, #53 ) ;
#170 = CYLINDRICAL_SURFACE ( 'NONE', #119, 2.000000000000000000 ) ;
#171 = CARTESIAN_POINT ( 'NONE',  ( -2.000000000000000000, 0.000000000000000000, 2.000000000000000000 ) ) ;
#172 = DIRECTION ( 'NONE',  ( -1.000000000000000000, 0.000000000000000000, 0.000000000000000000 ) ) ;
#173 = VECTOR ( 'NONE', #128, 1000.000000000000000 ) ;
#174 = CARTESIAN_POINT ( 'NONE',  ( 0.000000000000000000, 0.000000000000000000, 2.000000000000000000 ) ) ;
#175 = ADVANCED_FACE ( 'NONE', ( #71 ), #233, .T. ) ;
#176 = PLANE ( 'NONE',  #23 ) ;
#177 = PERSON_AND_ORGANIZATION ( #167, #59 ) ;
#178 = PERSON_AND_ORGANIZATION ( #167, #59 ) ;
#179 = ADVANCED_FACE ( 'NONE', ( #131 ), #89, .T. ) ;
#180 = CALENDAR_DATE ( 2023, 13, 2 ) ;
#181 = PRODUCT ( 'ec94', 'ec94', '', ( #135 ) ) ;
#182 = AXIS2_PLACEMENT_3D ( 'NONE', #93, #51, #49 ) ;
#183 = APPLICATION_PROTOCOL_DEFINITION ( 'international standard', 'config_control_design', 1994, #222 ) ;
#184 = APPLICATION_CONTEXT ( 'configuration controlled 3d designs of mechanical parts and assemblies' ) ;
#185 = ORIENTED_EDGE ( 'NONE', *, *, #67, .F. ) ;
#186 = DIRECTION ( 'NONE',  ( 0.000000000000000000, 0.000000000000000000, 1.000000000000000000 ) ) ;
#187 = DIRECTION ( 'NONE',  ( -1.000000000000000000, 0.000000000000000000, 0.000000000000000000 ) ) ;
#188 = EDGE_LOOP ( 'NONE', ( #85, #185, #101, #105 ) ) ;
#189 = CARTESIAN_POINT ( 'NONE',  ( 1.000000000000000000, 1.224646799147353207E-16, 2.000000000000000000 ) ) ;
#190 = DIRECTION ( 'NONE',  ( -0.000000000000000000, -0.000000000000000000, -1.000000000000000000 ) ) ;
#191 = DIRECTION ( 'NONE',  ( -1.000000000000000000, 0.000000000000000000, 0.000000000000000000 ) ) ;
#192 = DIRECTION ( 'NONE',  ( -0.000000000000000000, -0.000000000000000000, -1.000000000000000000 ) ) ;
#193 = CIRCLE ( 'NONE', #169, 2.000000000000000000 ) ;
#194 = DIRECTION ( 'NONE',  ( 0.000000000000000000, 0.000000000000000000, 1.000000000000000000 ) ) ;
#195 = APPROVAL_STATUS ( 'not_yet_approved' ) ;
#196 = CIRCLE ( 'NONE', #19, 2.000000000000000000 ) ;
#197 = ADVANCED_FACE ( 'NONE', ( #211 ), #176, .F. ) ;
#198 = COORDINATED_UNIVERSAL_TIME_OFFSET ( 1, 0, .AHEAD. ) ;
#199 = DIRECTION ( 'NONE',  ( 0.000000000000000000, 0.000000000000000000, 1.000000000000000000 ) ) ;
#200 = PRODUCT_DEFINITION ( 'NEZNÁMÝ', '', #92, #62 ) ;
#201 = PRODUCT_DEFINITION_SHAPE ( 'NONE', 'NONE',  #200 ) ;
#202 = APPROVAL_PERSON_ORGANIZATION ( #5, #228, #158 ) ;
#203 = AXIS2_PLACEMENT_3D ( 'NONE', #207, #104, #187 ) ;
#204 = ORIENTED_EDGE ( 'NONE', *, *, #121, .F. ) ;
#205 = EDGE_LOOP ( 'NONE', ( #165, #227 ) ) ;
#206 = AXIS2_PLACEMENT_3D ( 'NONE', #74, #73, #14 ) ;
#207 = CARTESIAN_POINT ( 'NONE',  ( 0.000000000000000000, 0.000000000000000000, 125.0000000000000000 ) ) ;
#208 = LINE ( 'NONE', #31, #64 ) ;
#209 = CARTESIAN_POINT ( 'NONE',  ( -2.000000000000000000, 0.000000000000000000, 0.000000000000000000 ) ) ;
#210 = ADVANCED_FACE ( 'NONE', ( #35 ), #170, .T. ) ;
#211 = FACE_OUTER_BOUND ( 'NONE', #205, .T. ) ;
#212 = CARTESIAN_POINT ( 'NONE',  ( 0.000000000000000000, 0.000000000000000000, 125.0000000000000000 ) ) ;
#213 = ADVANCED_BREP_SHAPE_REPRESENTATION ( 'ec94', ( #109, #54 ), #240 ) ;
#214 = LINE ( 'NONE', #130, #38 ) ;
#215 =( LENGTH_UNIT ( ) NAMED_UNIT ( * ) SI_UNIT ( .MILLI., .METRE. ) );
#216 = DATE_AND_TIME ( #253, #235 ) ;
#217 = CC_DESIGN_PERSON_AND_ORGANIZATION_ASSIGNMENT ( #221, #136, ( #200 ) ) ;
#218 = APPROVAL_DATE_TIME ( #96, #102 ) ;
#219 = CIRCLE ( 'NONE', #141, 1.000000000000000000 ) ;
#220 = COORDINATED_UNIVERSAL_TIME_OFFSET ( 1, 0, .AHEAD. ) ;
#221 = PERSON_AND_ORGANIZATION ( #167, #59 ) ;
#222 = APPLICATION_CONTEXT ( 'configuration controlled 3d designs of mechanical parts and assemblies' ) ;
#223 = ORIENTED_EDGE ( 'NONE', *, *, #236, .T. ) ;
#224 = ORIENTED_EDGE ( 'NONE', *, *, #50, .T. ) ;
#225 = CARTESIAN_POINT ( 'NONE',  ( -1.000000000000000000, 0.000000000000000000, 2.000000000000000000 ) ) ;
#226 = EDGE_LOOP ( 'NONE', ( #63, #28, #147, #143 ) ) ;
#227 = ORIENTED_EDGE ( 'NONE', *, *, #112, .F. ) ;
#228 = APPROVAL ( #40, 'NEURÈENÝ' ) ;
#229 = DIRECTION ( 'NONE',  ( 1.000000000000000000, 0.000000000000000000, -0.000000000000000000 ) ) ;
#230 = CARTESIAN_POINT ( 'NONE',  ( 0.000000000000000000, 0.000000000000000000, 0.000000000000000000 ) ) ;
#231 = CIRCLE ( 'NONE', #157, 2.000000000000000000 ) ;
#232 = DIRECTION ( 'NONE',  ( 0.000000000000000000, 0.000000000000000000, 1.000000000000000000 ) ) ;
#233 = PLANE ( 'NONE',  #206 ) ;
#234 = CARTESIAN_POINT ( 'NONE',  ( 1.000000000000000000, 1.224646799147353207E-16, 125.0000000000000000 ) ) ;
#235 = LOCAL_TIME ( 16, 59, 44.00000000000000000, #198 ) ;
#236 = EDGE_CURVE ( 'NONE', #168, #27, #76, .T. ) ;
#237 = COORDINATED_UNIVERSAL_TIME_OFFSET ( 1, 0, .AHEAD. ) ;
#238 = APPROVAL_ROLE ( '' ) ;
#239 = APPROVAL_DATE_TIME ( #22, #228 ) ;
#240 =( GEOMETRIC_REPRESENTATION_CONTEXT ( 3 ) GLOBAL_UNCERTAINTY_ASSIGNED_CONTEXT ( ( #48 ) ) GLOBAL_UNIT_ASSIGNED_CONTEXT ( ( #215, #42, #140 ) ) REPRESENTATION_CONTEXT ( 'NONE', 'WORKASPACE' ) );
#241 = ORIENTED_EDGE ( 'NONE', *, *, #129, .F. ) ;
#242 = EDGE_CURVE ( 'NONE', #123, #168, #36, .T. ) ;
#243 = ORIENTED_EDGE ( 'NONE', *, *, #3, .T. ) ;
#244 = CARTESIAN_POINT ( 'NONE',  ( 2.000000000000000000, 2.449293598294706414E-16, 0.000000000000000000 ) ) ;
#245 = EDGE_CURVE ( 'NONE', #164, #44, #193, .T. ) ;
#246 = CC_DESIGN_SECURITY_CLASSIFICATION ( #134, ( #92 ) ) ;
#247 = ORIENTED_EDGE ( 'NONE', *, *, #236, .F. ) ;
#248 = CARTESIAN_POINT ( 'NONE',  ( 0.000000000000000000, 0.000000000000000000, 2.000000000000000000 ) ) ;
#249 = CYLINDRICAL_SURFACE ( 'NONE', #182, 2.000000000000000000 ) ;
#250 = DIRECTION ( 'NONE',  ( 0.000000000000000000, 0.000000000000000000, 1.000000000000000000 ) ) ;
#251 = DIRECTION ( 'NONE',  ( 0.000000000000000000, 0.000000000000000000, 1.000000000000000000 ) ) ;
#252 = DIRECTION ( 'NONE',  ( 0.000000000000000000, 0.000000000000000000, 1.000000000000000000 ) ) ;
#253 = CALENDAR_DATE ( 2023, 13, 2 ) ;
#254 = CIRCLE ( 'NONE', #138, 1.000000000000000000 ) ;
#255 = PERSON_AND_ORGANIZATION_ROLE ( 'design_supplier' ) ;
ENDSEC;
END-ISO-10303-21;
