ISO-10303-21;
HEADER;
FILE_DESCRIPTION (( 'STEP AP203' ),
    '1' );
FILE_NAME ('ed84.STEP',
    '2023-02-13T13:34:17',
    ( '' ),
    ( '' ),
    'SwSTEP 2.0',
    'SolidWorks 2019',
    '' );
FILE_SCHEMA (( 'CONFIG_CONTROL_DESIGN' ));
ENDSEC;

DATA;
#1 = ORIENTED_EDGE ( 'NONE', *, *, #78, .F. ) ;
#2 = ORIENTED_EDGE ( 'NONE', *, *, #214, .T. ) ;
#3 = DIRECTION ( 'NONE',  ( -0.000000000000000000, -0.000000000000000000, -1.000000000000000000 ) ) ;
#4 = CARTESIAN_POINT ( 'NONE',  ( 6.000000000000000888, 7.347880794884120722E-16, 0.000000000000000000 ) ) ;
#5 = DIRECTION ( 'NONE',  ( -0.000000000000000000, -0.000000000000000000, -1.000000000000000000 ) ) ;
#6 = AXIS2_PLACEMENT_3D ( 'NONE', #41, #141, #117 ) ;
#7 = CARTESIAN_POINT ( 'NONE',  ( 0.000000000000000000, 0.000000000000000000, 0.000000000000000000 ) ) ;
#8 = DIRECTION ( 'NONE',  ( 0.000000000000000000, 0.000000000000000000, 1.000000000000000000 ) ) ;
#9 = AXIS2_PLACEMENT_3D ( 'NONE', #112, #92, #195 ) ;
#10 = PLANE ( 'NONE',  #6 ) ;
#11 = CARTESIAN_POINT ( 'NONE',  ( 0.000000000000000000, 0.000000000000000000, 5.000000000000000000 ) ) ;
#12 = PRODUCT ( 'ed84', 'ed84', '', ( #165 ) ) ;
#13 = APPROVAL_PERSON_ORGANIZATION ( #192, #51, #146 ) ;
#14 = COORDINATED_UNIVERSAL_TIME_OFFSET ( 1, 0, .AHEAD. ) ;
#15 = CC_DESIGN_DATE_AND_TIME_ASSIGNMENT ( #36, #149, ( #179 ) ) ;
#16 = PERSON_AND_ORGANIZATION_ROLE ( 'design_supplier' ) ;
#17 = ORIENTED_EDGE ( 'NONE', *, *, #230, .T. ) ;
#18 = APPROVAL_PERSON_ORGANIZATION ( #152, #31, #237 ) ;
#19 = CARTESIAN_POINT ( 'NONE',  ( 0.000000000000000000, 0.000000000000000000, 315.0000000000000000 ) ) ;
#20 = CLOSED_SHELL ( 'NONE', ( #190, #129, #59, #151, #238, #25, #171 ) ) ;
#21 = VERTEX_POINT ( 'NONE', #158 ) ;
#22 = VERTEX_POINT ( 'NONE', #255 ) ;
#23 = DIRECTION ( 'NONE',  ( 1.000000000000000000, 0.000000000000000000, 0.000000000000000000 ) ) ;
#24 = CARTESIAN_POINT ( 'NONE',  ( 6.000000000000000888, 7.347880794884120722E-16, 5.000000000000000000 ) ) ;
#25 = ADVANCED_FACE ( 'NONE', ( #94 ), #177, .T. ) ;
#26 = CARTESIAN_POINT ( 'NONE',  ( 0.000000000000000000, 0.000000000000000000, 315.0000000000000000 ) ) ;
#27 = DIRECTION ( 'NONE',  ( 0.000000000000000000, 0.000000000000000000, 1.000000000000000000 ) ) ;
#28 = CARTESIAN_POINT ( 'NONE',  ( 3.750000000000000000, 4.592425496802573972E-16, 5.000000000000000000 ) ) ;
#29 = CIRCLE ( 'NONE', #200, 6.000000000000000888 ) ;
#30 =( NAMED_UNIT ( * ) SI_UNIT ( $, .STERADIAN. ) SOLID_ANGLE_UNIT ( ) );
#31 = APPROVAL ( #106, 'NEURÈENÝ' ) ;
#32 = LOCAL_TIME ( 14, 34, 17.00000000000000000, #168 ) ;
#33 =( LENGTH_UNIT ( ) NAMED_UNIT ( * ) SI_UNIT ( .MILLI., .METRE. ) );
#34 =( NAMED_UNIT ( * ) PLANE_ANGLE_UNIT ( ) SI_UNIT ( $, .RADIAN. ) );
#35 = APPROVAL ( #130, 'NEURÈENÝ' ) ;
#36 = DATE_AND_TIME ( #251, #225 ) ;
#37 = CARTESIAN_POINT ( 'NONE',  ( -6.000000000000000888, 0.000000000000000000, 5.000000000000000000 ) ) ;
#38 = VERTEX_POINT ( 'NONE', #37 ) ;
#39 = AXIS2_PLACEMENT_3D ( 'NONE', #120, #249, #226 ) ;
#40 = ORIENTED_EDGE ( 'NONE', *, *, #113, .F. ) ;
#41 = CARTESIAN_POINT ( 'NONE',  ( 0.000000000000000000, 0.000000000000000000, 0.000000000000000000 ) ) ;
#42 = FACE_OUTER_BOUND ( 'NONE', #222, .T. ) ;
#43 = FACE_OUTER_BOUND ( 'NONE', #131, .T. ) ;
#44 = DIRECTION ( 'NONE',  ( -0.000000000000000000, -0.000000000000000000, -1.000000000000000000 ) ) ;
#45 = DIRECTION ( 'NONE',  ( 0.000000000000000000, 0.000000000000000000, 1.000000000000000000 ) ) ;
#46 = APPROVAL_DATE_TIME ( #166, #51 ) ;
#47 = PERSON_AND_ORGANIZATION_ROLE ( 'design_owner' ) ;
#48 = AXIS2_PLACEMENT_3D ( 'NONE', #202, #208, #23 ) ;
#49 = CALENDAR_DATE ( 2023, 13, 2 ) ;
#50 = PERSON_AND_ORGANIZATION ( #102, #64 ) ;
#51 = APPROVAL ( #188, 'NEURÈENÝ' ) ;
#52 = EDGE_LOOP ( 'NONE', ( #156, #157 ) ) ;
#53 = SHAPE_DEFINITION_REPRESENTATION ( #189, #147 ) ;
#54 = ORIENTED_EDGE ( 'NONE', *, *, #176, .F. ) ;
#55 = EDGE_CURVE ( 'NONE', #114, #21, #100, .T. ) ;
#56 = ORIENTED_EDGE ( 'NONE', *, *, #203, .F. ) ;
#57 = VECTOR ( 'NONE', #101, 1000.000000000000000 ) ;
#58 = FACE_OUTER_BOUND ( 'NONE', #172, .T. ) ;
#59 = ADVANCED_FACE ( 'NONE', ( #42 ), #82, .T. ) ;
#60 = LINE ( 'NONE', #122, #196 ) ;
#61 = LINE ( 'NONE', #184, #79 ) ;
#62 = FACE_OUTER_BOUND ( 'NONE', #218, .T. ) ;
#63 = DIRECTION ( 'NONE',  ( 1.000000000000000000, 0.000000000000000000, 0.000000000000000000 ) ) ;
#64 = ORGANIZATION ( 'NEURÈENÝ', 'NEURÈENÝ', '' ) ;
#65 = APPLICATION_CONTEXT ( 'configuration controlled 3d designs of mechanical parts and assemblies' ) ;
#66 = CC_DESIGN_PERSON_AND_ORGANIZATION_ASSIGNMENT ( #210, #90, ( #179 ) ) ;
#67 = COORDINATED_UNIVERSAL_TIME_OFFSET ( 1, 0, .AHEAD. ) ;
#68 = PERSON_AND_ORGANIZATION ( #102, #64 ) ;
#69 = EDGE_CURVE ( 'NONE', #38, #198, #76, .T. ) ;
#70 = LOCAL_TIME ( 14, 34, 17.00000000000000000, #14 ) ;
#71 = AXIS2_PLACEMENT_3D ( 'NONE', #26, #8, #63 ) ;
#72 = COORDINATED_UNIVERSAL_TIME_OFFSET ( 1, 0, .AHEAD. ) ;
#73 = CIRCLE ( 'NONE', #224, 6.000000000000000888 ) ;
#74 = PRODUCT_DEFINITION_FORMATION_WITH_SPECIFIED_SOURCE ( 'LIBOVOLNÝ', '', #12, .NOT_KNOWN. ) ;
#75 = ORIENTED_EDGE ( 'NONE', *, *, #203, .T. ) ;
#76 = CIRCLE ( 'NONE', #174, 6.000000000000000888 ) ;
#77 = ORIENTED_EDGE ( 'NONE', *, *, #230, .F. ) ;
#78 = EDGE_CURVE ( 'NONE', #159, #244, #29, .T. ) ;
#79 = VECTOR ( 'NONE', #5, 1000.000000000000000 ) ;
#80 = ORIENTED_EDGE ( 'NONE', *, *, #55, .T. ) ;
#81 = DIRECTION ( 'NONE',  ( -1.000000000000000000, 0.000000000000000000, 0.000000000000000000 ) ) ;
#82 = CYLINDRICAL_SURFACE ( 'NONE', #107, 6.000000000000000888 ) ;
#83 = CC_DESIGN_APPROVAL ( #51, ( #179 ) ) ;
#84 = LINE ( 'NONE', #145, #57 ) ;
#85 = DIRECTION ( 'NONE',  ( 0.000000000000000000, 0.000000000000000000, 1.000000000000000000 ) ) ;
#86 = AXIS2_PLACEMENT_3D ( 'NONE', #161, #85, #87 ) ;
#87 = DIRECTION ( 'NONE',  ( 1.000000000000000000, 0.000000000000000000, -0.000000000000000000 ) ) ;
#88 = CARTESIAN_POINT ( 'NONE',  ( 0.000000000000000000, 0.000000000000000000, 5.000000000000000000 ) ) ;
#89 = DIRECTION ( 'NONE',  ( 1.000000000000000000, 0.000000000000000000, 0.000000000000000000 ) ) ;
#90 = PERSON_AND_ORGANIZATION_ROLE ( 'creator' ) ;
#91 = CALENDAR_DATE ( 2023, 13, 2 ) ;
#92 = DIRECTION ( 'NONE',  ( 0.000000000000000000, 0.000000000000000000, 1.000000000000000000 ) ) ;
#93 = ORIENTED_EDGE ( 'NONE', *, *, #219, .F. ) ;
#94 = FACE_OUTER_BOUND ( 'NONE', #243, .T. ) ;
#95 = CARTESIAN_POINT ( 'NONE',  ( -6.000000000000000888, 0.000000000000000000, 0.000000000000000000 ) ) ;
#96 = DIRECTION ( 'NONE',  ( 1.000000000000000000, 0.000000000000000000, 0.000000000000000000 ) ) ;
#97 = CC_DESIGN_APPROVAL ( #31, ( #74 ) ) ;
#98 = FACE_OUTER_BOUND ( 'NONE', #116, .T. ) ;
#99 = CARTESIAN_POINT ( 'NONE',  ( 0.000000000000000000, 0.000000000000000000, 315.0000000000000000 ) ) ;
#100 = CIRCLE ( 'NONE', #9, 3.750000000000000000 ) ;
#101 = DIRECTION ( 'NONE',  ( -0.000000000000000000, -0.000000000000000000, -1.000000000000000000 ) ) ;
#102 = PERSON ( 'NEURÈENÝ', 'NEURÈENÝ', 'NEURÈENÝ', ('NEURÈENÝ'), ('NEURÈENÝ'), ('NEURÈENÝ') ) ;
#103 = AXIS2_PLACEMENT_3D ( 'NONE', #178, #167, #187 ) ;
#104 = CC_DESIGN_APPROVAL ( #35, ( #207 ) ) ;
#105 = CARTESIAN_POINT ( 'NONE',  ( 0.000000000000000000, 0.000000000000000000, 0.000000000000000000 ) ) ;
#106 = APPROVAL_STATUS ( 'not_yet_approved' ) ;
#107 = AXIS2_PLACEMENT_3D ( 'NONE', #183, #44, #121 ) ;
#108 = DATE_AND_TIME ( #193, #32 ) ;
#109 = APPLICATION_PROTOCOL_DEFINITION ( 'international standard', 'config_control_design', 1994, #65 ) ;
#110 = AXIS2_PLACEMENT_3D ( 'NONE', #11, #150, #128 ) ;
#111 = AXIS2_PLACEMENT_3D ( 'NONE', #105, #123, #89 ) ;
#112 = CARTESIAN_POINT ( 'NONE',  ( 0.000000000000000000, 0.000000000000000000, 5.000000000000000000 ) ) ;
#113 = EDGE_CURVE ( 'NONE', #38, #244, #250, .T. ) ;
#114 = VERTEX_POINT ( 'NONE', #28 ) ;
#115 = ORIENTED_EDGE ( 'NONE', *, *, #176, .T. ) ;
#116 = EDGE_LOOP ( 'NONE', ( #93, #1 ) ) ;
#117 = DIRECTION ( 'NONE',  ( 1.000000000000000000, 0.000000000000000000, -0.000000000000000000 ) ) ;
#118 = EDGE_CURVE ( 'NONE', #220, #22, #169, .T. ) ;
#119 = FACE_BOUND ( 'NONE', #52, .T. ) ;
#120 = CARTESIAN_POINT ( 'NONE',  ( 0.000000000000000000, 0.000000000000000000, 315.0000000000000000 ) ) ;
#121 = DIRECTION ( 'NONE',  ( -1.000000000000000000, 0.000000000000000000, 0.000000000000000000 ) ) ;
#122 = CARTESIAN_POINT ( 'NONE',  ( 3.750000000000000000, 4.592425496802573972E-16, 315.0000000000000000 ) ) ;
#123 = DIRECTION ( 'NONE',  ( 0.000000000000000000, 0.000000000000000000, 1.000000000000000000 ) ) ;
#124 = PRODUCT_RELATED_PRODUCT_CATEGORY ( 'detail', '', ( #12 ) ) ;
#125 = SECURITY_CLASSIFICATION_LEVEL ( 'unclassified' ) ;
#126 = LOCAL_TIME ( 14, 34, 17.00000000000000000, #67 ) ;
#127 = CALENDAR_DATE ( 2023, 13, 2 ) ;
#128 = DIRECTION ( 'NONE',  ( 1.000000000000000000, 0.000000000000000000, 0.000000000000000000 ) ) ;
#129 = ADVANCED_FACE ( 'NONE', ( #144 ), #227, .T. ) ;
#130 = APPROVAL_STATUS ( 'not_yet_approved' ) ;
#131 = EDGE_LOOP ( 'NONE', ( #241, #135 ) ) ;
#132 = ORIENTED_EDGE ( 'NONE', *, *, #219, .T. ) ;
#133 = CC_DESIGN_PERSON_AND_ORGANIZATION_ASSIGNMENT ( #212, #148, ( #74 ) ) ;
#134 = ORIENTED_EDGE ( 'NONE', *, *, #78, .T. ) ;
#135 = ORIENTED_EDGE ( 'NONE', *, *, #253, .T. ) ;
#136 = ORIENTED_EDGE ( 'NONE', *, *, #118, .T. ) ;
#137 = VECTOR ( 'NONE', #206, 1000.000000000000000 ) ;
#138 = CC_DESIGN_PERSON_AND_ORGANIZATION_ASSIGNMENT ( #235, #154, ( #207 ) ) ;
#139 = DIRECTION ( 'NONE',  ( 1.000000000000000000, 0.000000000000000000, 0.000000000000000000 ) ) ;
#140 = DIRECTION ( 'NONE',  ( -0.000000000000000000, -0.000000000000000000, -1.000000000000000000 ) ) ;
#141 = DIRECTION ( 'NONE',  ( 0.000000000000000000, 0.000000000000000000, 1.000000000000000000 ) ) ;
#142 = CC_DESIGN_PERSON_AND_ORGANIZATION_ASSIGNMENT ( #233, #16, ( #74 ) ) ;
#143 = UNCERTAINTY_MEASURE_WITH_UNIT (LENGTH_MEASURE( 1.000000000000000082E-05 ), #33, 'distance_accuracy_value', 'NONE');
#144 = FACE_OUTER_BOUND ( 'NONE', #197, .T. ) ;
#145 = CARTESIAN_POINT ( 'NONE',  ( 6.000000000000000888, 7.347880794884120722E-16, 5.000000000000000000 ) ) ;
#146 = APPROVAL_ROLE ( '' ) ;
#147 = ADVANCED_BREP_SHAPE_REPRESENTATION ( 'ed84', ( #221, #111 ), #217 ) ;
#148 = PERSON_AND_ORGANIZATION_ROLE ( 'creator' ) ;
#149 = DATE_TIME_ROLE ( 'creation_date' ) ;
#150 = DIRECTION ( 'NONE',  ( 0.000000000000000000, 0.000000000000000000, 1.000000000000000000 ) ) ;
#151 = ADVANCED_FACE ( 'NONE', ( #119, #43 ), #245, .T. ) ;
#152 = PERSON_AND_ORGANIZATION ( #102, #64 ) ;
#153 = AXIS2_PLACEMENT_3D ( 'NONE', #88, #182, #228 ) ;
#154 = PERSON_AND_ORGANIZATION_ROLE ( 'classification_officer' ) ;
#155 = APPROVAL_PERSON_ORGANIZATION ( #50, #35, #239 ) ;
#156 = ORIENTED_EDGE ( 'NONE', *, *, #246, .F. ) ;
#157 = ORIENTED_EDGE ( 'NONE', *, *, #55, .F. ) ;
#158 = CARTESIAN_POINT ( 'NONE',  ( -3.750000000000000000, 0.000000000000000000, 5.000000000000000000 ) ) ;
#159 = VERTEX_POINT ( 'NONE', #4 ) ;
#160 = AXIS2_PLACEMENT_3D ( 'NONE', #99, #45, #163 ) ;
#161 = CARTESIAN_POINT ( 'NONE',  ( 0.000000000000000000, 0.000000000000000000, 5.000000000000000000 ) ) ;
#162 = CARTESIAN_POINT ( 'NONE',  ( 0.000000000000000000, 0.000000000000000000, 5.000000000000000000 ) ) ;
#163 = DIRECTION ( 'NONE',  ( 1.000000000000000000, 0.000000000000000000, -0.000000000000000000 ) ) ;
#164 = CARTESIAN_POINT ( 'NONE',  ( -6.000000000000000888, 0.000000000000000000, 5.000000000000000000 ) ) ;
#165 = MECHANICAL_CONTEXT ( 'NONE', #232, 'mechanical' ) ;
#166 = DATE_AND_TIME ( #127, #70 ) ;
#167 = DIRECTION ( 'NONE',  ( 0.000000000000000000, 0.000000000000000000, 1.000000000000000000 ) ) ;
#168 = COORDINATED_UNIVERSAL_TIME_OFFSET ( 1, 0, .AHEAD. ) ;
#169 = CIRCLE ( 'NONE', #71, 3.750000000000000000 ) ;
#170 = APPROVAL_DATE_TIME ( #108, #35 ) ;
#171 = ADVANCED_FACE ( 'NONE', ( #58 ), #204, .T. ) ;
#172 = EDGE_LOOP ( 'NONE', ( #75, #136 ) ) ;
#173 = ORIENTED_EDGE ( 'NONE', *, *, #113, .T. ) ;
#174 = AXIS2_PLACEMENT_3D ( 'NONE', #162, #247, #180 ) ;
#175 = ORIENTED_EDGE ( 'NONE', *, *, #253, .F. ) ;
#176 = EDGE_CURVE ( 'NONE', #198, #159, #84, .T. ) ;
#177 = CYLINDRICAL_SURFACE ( 'NONE', #205, 3.750000000000000000 ) ;
#178 = CARTESIAN_POINT ( 'NONE',  ( 0.000000000000000000, 0.000000000000000000, 5.000000000000000000 ) ) ;
#179 = PRODUCT_DEFINITION ( 'NEZNÁMÝ', '', #74, #240 ) ;
#180 = DIRECTION ( 'NONE',  ( 1.000000000000000000, 0.000000000000000000, 0.000000000000000000 ) ) ;
#181 = CIRCLE ( 'NONE', #103, 3.750000000000000000 ) ;
#182 = DIRECTION ( 'NONE',  ( -0.000000000000000000, -0.000000000000000000, -1.000000000000000000 ) ) ;
#183 = CARTESIAN_POINT ( 'NONE',  ( 0.000000000000000000, 0.000000000000000000, 5.000000000000000000 ) ) ;
#184 = CARTESIAN_POINT ( 'NONE',  ( -3.750000000000000000, 0.000000000000000000, 315.0000000000000000 ) ) ;
#185 = CC_DESIGN_DATE_AND_TIME_ASSIGNMENT ( #254, #213, ( #207 ) ) ;
#186 = LOCAL_TIME ( 14, 34, 17.00000000000000000, #72 ) ;
#187 = DIRECTION ( 'NONE',  ( 1.000000000000000000, 0.000000000000000000, 0.000000000000000000 ) ) ;
#188 = APPROVAL_STATUS ( 'not_yet_approved' ) ;
#189 = PRODUCT_DEFINITION_SHAPE ( 'NONE', 'NONE',  #179 ) ;
#190 = ADVANCED_FACE ( 'NONE', ( #62 ), #231, .T. ) ;
#191 = CIRCLE ( 'NONE', #48, 3.750000000000000000 ) ;
#192 = PERSON_AND_ORGANIZATION ( #102, #64 ) ;
#193 = CALENDAR_DATE ( 2023, 13, 2 ) ;
#194 = DATE_AND_TIME ( #49, #126 ) ;
#195 = DIRECTION ( 'NONE',  ( 1.000000000000000000, 0.000000000000000000, 0.000000000000000000 ) ) ;
#196 = VECTOR ( 'NONE', #140, 1000.000000000000000 ) ;
#197 = EDGE_LOOP ( 'NONE', ( #175, #115, #134, #40 ) ) ;
#198 = VERTEX_POINT ( 'NONE', #24 ) ;
#199 = ORIENTED_EDGE ( 'NONE', *, *, #214, .F. ) ;
#200 = AXIS2_PLACEMENT_3D ( 'NONE', #7, #27, #96 ) ;
#201 = ORIENTED_EDGE ( 'NONE', *, *, #246, .T. ) ;
#202 = CARTESIAN_POINT ( 'NONE',  ( 0.000000000000000000, 0.000000000000000000, 315.0000000000000000 ) ) ;
#203 = EDGE_CURVE ( 'NONE', #22, #220, #191, .T. ) ;
#204 = PLANE ( 'NONE',  #160 ) ;
#205 = AXIS2_PLACEMENT_3D ( 'NONE', #19, #3, #81 ) ;
#206 = DIRECTION ( 'NONE',  ( -0.000000000000000000, -0.000000000000000000, -1.000000000000000000 ) ) ;
#207 = SECURITY_CLASSIFICATION ( '', '', #125 ) ;
#208 = DIRECTION ( 'NONE',  ( 0.000000000000000000, 0.000000000000000000, 1.000000000000000000 ) ) ;
#209 = DIRECTION ( 'NONE',  ( 0.000000000000000000, 0.000000000000000000, 1.000000000000000000 ) ) ;
#210 = PERSON_AND_ORGANIZATION ( #102, #64 ) ;
#211 = COORDINATED_UNIVERSAL_TIME_OFFSET ( 1, 0, .AHEAD. ) ;
#212 = PERSON_AND_ORGANIZATION ( #102, #64 ) ;
#213 = DATE_TIME_ROLE ( 'classification_date' ) ;
#214 = EDGE_CURVE ( 'NONE', #220, #114, #60, .T. ) ;
#215 = ORIENTED_EDGE ( 'NONE', *, *, #118, .F. ) ;
#216 = ORIENTED_EDGE ( 'NONE', *, *, #69, .F. ) ;
#217 =( GEOMETRIC_REPRESENTATION_CONTEXT ( 3 ) GLOBAL_UNCERTAINTY_ASSIGNED_CONTEXT ( ( #143 ) ) GLOBAL_UNIT_ASSIGNED_CONTEXT ( ( #33, #34, #30 ) ) REPRESENTATION_CONTEXT ( 'NONE', 'WORKASPACE' ) );
#218 = EDGE_LOOP ( 'NONE', ( #215, #2, #80, #77 ) ) ;
#219 = EDGE_CURVE ( 'NONE', #244, #159, #73, .T. ) ;
#220 = VERTEX_POINT ( 'NONE', #223 ) ;
#221 = MANIFOLD_SOLID_BREP ( 'Pøidat vysunutím3', #20 ) ;
#222 = EDGE_LOOP ( 'NONE', ( #54, #216, #173, #132 ) ) ;
#223 = CARTESIAN_POINT ( 'NONE',  ( 3.750000000000000000, 4.592425496802573972E-16, 315.0000000000000000 ) ) ;
#224 = AXIS2_PLACEMENT_3D ( 'NONE', #248, #209, #139 ) ;
#225 = LOCAL_TIME ( 14, 34, 17.00000000000000000, #211 ) ;
#226 = DIRECTION ( 'NONE',  ( -1.000000000000000000, 0.000000000000000000, 0.000000000000000000 ) ) ;
#227 = CYLINDRICAL_SURFACE ( 'NONE', #153, 6.000000000000000888 ) ;
#228 = DIRECTION ( 'NONE',  ( -1.000000000000000000, 0.000000000000000000, 0.000000000000000000 ) ) ;
#229 = CIRCLE ( 'NONE', #110, 6.000000000000000888 ) ;
#230 = EDGE_CURVE ( 'NONE', #22, #21, #61, .T. ) ;
#231 = CYLINDRICAL_SURFACE ( 'NONE', #39, 3.750000000000000000 ) ;
#232 = APPLICATION_CONTEXT ( 'configuration controlled 3d designs of mechanical parts and assemblies' ) ;
#233 = PERSON_AND_ORGANIZATION ( #102, #64 ) ;
#234 = CC_DESIGN_SECURITY_CLASSIFICATION ( #207, ( #74 ) ) ;
#235 = PERSON_AND_ORGANIZATION ( #102, #64 ) ;
#236 = APPLICATION_PROTOCOL_DEFINITION ( 'international standard', 'config_control_design', 1994, #232 ) ;
#237 = APPROVAL_ROLE ( '' ) ;
#238 = ADVANCED_FACE ( 'NONE', ( #98 ), #10, .F. ) ;
#239 = APPROVAL_ROLE ( '' ) ;
#240 = DESIGN_CONTEXT ( 'detailed design', #65, 'design' ) ;
#241 = ORIENTED_EDGE ( 'NONE', *, *, #69, .T. ) ;
#242 = CC_DESIGN_PERSON_AND_ORGANIZATION_ASSIGNMENT ( #68, #47, ( #12 ) ) ;
#243 = EDGE_LOOP ( 'NONE', ( #199, #56, #17, #201 ) ) ;
#244 = VERTEX_POINT ( 'NONE', #95 ) ;
#245 = PLANE ( 'NONE',  #86 ) ;
#246 = EDGE_CURVE ( 'NONE', #21, #114, #181, .T. ) ;
#247 = DIRECTION ( 'NONE',  ( 0.000000000000000000, 0.000000000000000000, 1.000000000000000000 ) ) ;
#248 = CARTESIAN_POINT ( 'NONE',  ( 0.000000000000000000, 0.000000000000000000, 0.000000000000000000 ) ) ;
#249 = DIRECTION ( 'NONE',  ( -0.000000000000000000, -0.000000000000000000, -1.000000000000000000 ) ) ;
#250 = LINE ( 'NONE', #164, #137 ) ;
#251 = CALENDAR_DATE ( 2023, 13, 2 ) ;
#252 = APPROVAL_DATE_TIME ( #194, #31 ) ;
#253 = EDGE_CURVE ( 'NONE', #198, #38, #229, .T. ) ;
#254 = DATE_AND_TIME ( #91, #186 ) ;
#255 = CARTESIAN_POINT ( 'NONE',  ( -3.750000000000000000, 0.000000000000000000, 315.0000000000000000 ) ) ;
ENDSEC;
END-ISO-10303-21;
