ISO-10303-21;
HEADER;
FILE_DESCRIPTION (( 'STEP AP203' ),
    '1' );
FILE_NAME ('c189.STEP',
    '2023-02-13T15:04:00',
    ( '' ),
    ( '' ),
    'SwSTEP 2.0',
    'SolidWorks 2019',
    '' );
FILE_SCHEMA (( 'CONFIG_CONTROL_DESIGN' ));
ENDSEC;

DATA;
#1 = DIRECTION ( 'NONE',  ( -0.000000000000000000, -0.000000000000000000, -1.000000000000000000 ) ) ;
#2 = CARTESIAN_POINT ( 'NONE',  ( 0.000000000000000000, 0.000000000000000000, 3.000000000000000000 ) ) ;
#3 = LINE ( 'NONE', #78, #182 ) ;
#4 = CARTESIAN_POINT ( 'NONE',  ( 0.000000000000000000, 0.000000000000000000, 3.000000000000000000 ) ) ;
#5 = DIRECTION ( 'NONE',  ( 0.000000000000000000, 0.000000000000000000, 1.000000000000000000 ) ) ;
#6 = PERSON_AND_ORGANIZATION ( #111, #186 ) ;
#7 = CARTESIAN_POINT ( 'NONE',  ( 0.000000000000000000, 0.000000000000000000, 0.000000000000000000 ) ) ;
#8 = APPROVAL_STATUS ( 'not_yet_approved' ) ;
#9 = CIRCLE ( 'NONE', #139, 2.250000000000000000 ) ;
#10 = DATE_AND_TIME ( #65, #216 ) ;
#11 = CC_DESIGN_PERSON_AND_ORGANIZATION_ASSIGNMENT ( #171, #84, ( #25 ) ) ;
#12 = CALENDAR_DATE ( 2023, 13, 2 ) ;
#13 = VERTEX_POINT ( 'NONE', #197 ) ;
#14 = AXIS2_PLACEMENT_3D ( 'NONE', #82, #19, #40 ) ;
#15 = FACE_OUTER_BOUND ( 'NONE', #51, .T. ) ;
#16 = DIRECTION ( 'NONE',  ( -1.000000000000000000, 0.000000000000000000, 0.000000000000000000 ) ) ;
#17 = EDGE_CURVE ( 'NONE', #176, #13, #178, .T. ) ;
#18 = CYLINDRICAL_SURFACE ( 'NONE', #59, 4.000000000000000000 ) ;
#19 = DIRECTION ( 'NONE',  ( 0.000000000000000000, 0.000000000000000000, 1.000000000000000000 ) ) ;
#20 = EDGE_CURVE ( 'NONE', #92, #13, #207, .T. ) ;
#21 = DIRECTION ( 'NONE',  ( 0.000000000000000000, 0.000000000000000000, 1.000000000000000000 ) ) ;
#22 = DIRECTION ( 'NONE',  ( 1.000000000000000000, 0.000000000000000000, 0.000000000000000000 ) ) ;
#23 = CARTESIAN_POINT ( 'NONE',  ( 2.250000000000000000, 2.755455298081544285E-16, 315.0000000000000000 ) ) ;
#24 = CIRCLE ( 'NONE', #31, 2.250000000000000000 ) ;
#25 = SECURITY_CLASSIFICATION ( '', '', #189 ) ;
#26 = COORDINATED_UNIVERSAL_TIME_OFFSET ( 1, 0, .AHEAD. ) ;
#27 = APPLICATION_CONTEXT ( 'configuration controlled 3d designs of mechanical parts and assemblies' ) ;
#28 = CC_DESIGN_APPROVAL ( #72, ( #25 ) ) ;
#29 = ADVANCED_FACE ( 'NONE', ( #15 ), #252, .T. ) ;
#30 = PERSON_AND_ORGANIZATION ( #111, #186 ) ;
#31 = AXIS2_PLACEMENT_3D ( 'NONE', #2, #185, #219 ) ;
#32 = EDGE_LOOP ( 'NONE', ( #112, #35 ) ) ;
#33 = VERTEX_POINT ( 'NONE', #94 ) ;
#34 = AXIS2_PLACEMENT_3D ( 'NONE', #93, #198, #179 ) ;
#35 = ORIENTED_EDGE ( 'NONE', *, *, #194, .T. ) ;
#36 = CARTESIAN_POINT ( 'NONE',  ( 0.000000000000000000, 0.000000000000000000, 3.000000000000000000 ) ) ;
#37 = CC_DESIGN_DATE_AND_TIME_ASSIGNMENT ( #169, #190, ( #25 ) ) ;
#38 = FACE_OUTER_BOUND ( 'NONE', #32, .T. ) ;
#39 = FACE_OUTER_BOUND ( 'NONE', #116, .T. ) ;
#40 = DIRECTION ( 'NONE',  ( 1.000000000000000000, 0.000000000000000000, -0.000000000000000000 ) ) ;
#41 = CARTESIAN_POINT ( 'NONE',  ( 0.000000000000000000, 0.000000000000000000, 0.000000000000000000 ) ) ;
#42 = CARTESIAN_POINT ( 'NONE',  ( 2.250000000000000000, 2.755455298081544285E-16, 3.000000000000000000 ) ) ;
#43 = COORDINATED_UNIVERSAL_TIME_OFFSET ( 1, 0, .AHEAD. ) ;
#44 = PRODUCT_RELATED_PRODUCT_CATEGORY ( 'detail', '', ( #80 ) ) ;
#45 = AXIS2_PLACEMENT_3D ( 'NONE', #140, #222, #100 ) ;
#46 = PERSON_AND_ORGANIZATION_ROLE ( 'creator' ) ;
#47 = PERSON_AND_ORGANIZATION ( #111, #186 ) ;
#48 = APPROVAL_STATUS ( 'not_yet_approved' ) ;
#49 = AXIS2_PLACEMENT_3D ( 'NONE', #63, #146, #203 ) ;
#50 = ORIENTED_EDGE ( 'NONE', *, *, #201, .F. ) ;
#51 = EDGE_LOOP ( 'NONE', ( #67, #53, #214, #247 ) ) ;
#52 = DIRECTION ( 'NONE',  ( -0.000000000000000000, -0.000000000000000000, -1.000000000000000000 ) ) ;
#53 = ORIENTED_EDGE ( 'NONE', *, *, #88, .F. ) ;
#54 = APPROVAL ( #152, 'NEURÈENÝ' ) ;
#55 = EDGE_LOOP ( 'NONE', ( #136, #234, #235, #50 ) ) ;
#56 = DIRECTION ( 'NONE',  ( 1.000000000000000000, 0.000000000000000000, 0.000000000000000000 ) ) ;
#57 = DIRECTION ( 'NONE',  ( 0.000000000000000000, 0.000000000000000000, 1.000000000000000000 ) ) ;
#58 = DIRECTION ( 'NONE',  ( 1.000000000000000000, 0.000000000000000000, 0.000000000000000000 ) ) ;
#59 = AXIS2_PLACEMENT_3D ( 'NONE', #97, #1, #75 ) ;
#60 = EDGE_CURVE ( 'NONE', #250, #90, #180, .T. ) ;
#61 = CARTESIAN_POINT ( 'NONE',  ( -2.250000000000000000, 0.000000000000000000, 315.0000000000000000 ) ) ;
#62 = EDGE_CURVE ( 'NONE', #250, #73, #218, .T. ) ;
#63 = CARTESIAN_POINT ( 'NONE',  ( 0.000000000000000000, 0.000000000000000000, 315.0000000000000000 ) ) ;
#64 =( NAMED_UNIT ( * ) PLANE_ANGLE_UNIT ( ) SI_UNIT ( $, .RADIAN. ) );
#65 = CALENDAR_DATE ( 2023, 13, 2 ) ;
#66 = MANIFOLD_SOLID_BREP ( 'Pøidat vysunutím3', #237 ) ;
#67 = ORIENTED_EDGE ( 'NONE', *, *, #60, .F. ) ;
#68 = AXIS2_PLACEMENT_3D ( 'NONE', #36, #200, #16 ) ;
#69 = ORIENTED_EDGE ( 'NONE', *, *, #124, .F. ) ;
#70 = VERTEX_POINT ( 'NONE', #118 ) ;
#71 = ORIENTED_EDGE ( 'NONE', *, *, #194, .F. ) ;
#72 = APPROVAL ( #48, 'NEURÈENÝ' ) ;
#73 = VERTEX_POINT ( 'NONE', #183 ) ;
#74 = PLANE ( 'NONE',  #248 ) ;
#75 = DIRECTION ( 'NONE',  ( -1.000000000000000000, 0.000000000000000000, 0.000000000000000000 ) ) ;
#76 = CC_DESIGN_PERSON_AND_ORGANIZATION_ASSIGNMENT ( #47, #151, ( #80 ) ) ;
#77 = DIRECTION ( 'NONE',  ( -1.000000000000000000, 0.000000000000000000, 0.000000000000000000 ) ) ;
#78 = CARTESIAN_POINT ( 'NONE',  ( -4.000000000000000000, 0.000000000000000000, 3.000000000000000000 ) ) ;
#79 = CC_DESIGN_APPROVAL ( #81, ( #104 ) ) ;
#80 = PRODUCT ( 'c189', 'c189', '', ( #86 ) ) ;
#81 = APPROVAL ( #8, 'NEURÈENÝ' ) ;
#82 = CARTESIAN_POINT ( 'NONE',  ( 0.000000000000000000, 0.000000000000000000, 0.000000000000000000 ) ) ;
#83 = COORDINATED_UNIVERSAL_TIME_OFFSET ( 1, 0, .AHEAD. ) ;
#84 = PERSON_AND_ORGANIZATION_ROLE ( 'classification_officer' ) ;
#85 = EDGE_CURVE ( 'NONE', #176, #33, #9, .T. ) ;
#86 = MECHANICAL_CONTEXT ( 'NONE', #177, 'mechanical' ) ;
#87 = COORDINATED_UNIVERSAL_TIME_OFFSET ( 1, 0, .AHEAD. ) ;
#88 = EDGE_CURVE ( 'NONE', #73, #250, #202, .T. ) ;
#89 = ADVANCED_BREP_SHAPE_REPRESENTATION ( 'c189', ( #66, #149 ), #255 ) ;
#90 = VERTEX_POINT ( 'NONE', #164 ) ;
#91 = EDGE_LOOP ( 'NONE', ( #175, #154, #217, #249 ) ) ;
#92 = VERTEX_POINT ( 'NONE', #42 ) ;
#93 = CARTESIAN_POINT ( 'NONE',  ( 0.000000000000000000, 0.000000000000000000, 3.000000000000000000 ) ) ;
#94 = CARTESIAN_POINT ( 'NONE',  ( 2.250000000000000000, 2.755455298081544285E-16, 315.0000000000000000 ) ) ;
#95 = VECTOR ( 'NONE', #240, 1000.000000000000000 ) ;
#96 = ADVANCED_FACE ( 'NONE', ( #138 ), #209, .T. ) ;
#97 = CARTESIAN_POINT ( 'NONE',  ( 0.000000000000000000, 0.000000000000000000, 3.000000000000000000 ) ) ;
#98 = DIRECTION ( 'NONE',  ( 0.000000000000000000, 0.000000000000000000, 1.000000000000000000 ) ) ;
#99 = DIRECTION ( 'NONE',  ( 0.000000000000000000, 0.000000000000000000, 1.000000000000000000 ) ) ;
#100 = DIRECTION ( 'NONE',  ( -1.000000000000000000, 0.000000000000000000, 0.000000000000000000 ) ) ;
#101 = ADVANCED_FACE ( 'NONE', ( #206, #204 ), #74, .T. ) ;
#102 = CARTESIAN_POINT ( 'NONE',  ( 0.000000000000000000, 0.000000000000000000, 315.0000000000000000 ) ) ;
#103 = PRODUCT_DEFINITION_FORMATION_WITH_SPECIFIED_SOURCE ( 'LIBOVOLNÝ', '', #80, .NOT_KNOWN. ) ;
#104 = PRODUCT_DEFINITION ( 'NEZNÁMÝ', '', #103, #163 ) ;
#105 =( NAMED_UNIT ( * ) SI_UNIT ( $, .STERADIAN. ) SOLID_ANGLE_UNIT ( ) );
#106 = AXIS2_PLACEMENT_3D ( 'NONE', #4, #162, #161 ) ;
#107 = EDGE_CURVE ( 'NONE', #33, #92, #254, .T. ) ;
#108 = CALENDAR_DATE ( 2023, 13, 2 ) ;
#109 = PERSON_AND_ORGANIZATION ( #111, #186 ) ;
#110 = AXIS2_PLACEMENT_3D ( 'NONE', #236, #121, #56 ) ;
#111 = PERSON ( 'NEURÈENÝ', 'NEURÈENÝ', 'NEURÈENÝ', ('NEURÈENÝ'), ('NEURÈENÝ'), ('NEURÈENÝ') ) ;
#112 = ORIENTED_EDGE ( 'NONE', *, *, #85, .T. ) ;
#113 = ORIENTED_EDGE ( 'NONE', *, *, #147, .F. ) ;
#114 = ORIENTED_EDGE ( 'NONE', *, *, #62, .T. ) ;
#115 = CC_DESIGN_SECURITY_CLASSIFICATION ( #25, ( #103 ) ) ;
#116 = EDGE_LOOP ( 'NONE', ( #134, #69 ) ) ;
#117 = FACE_OUTER_BOUND ( 'NONE', #55, .T. ) ;
#118 = CARTESIAN_POINT ( 'NONE',  ( -4.000000000000000000, 0.000000000000000000, 0.000000000000000000 ) ) ;
#119 = APPROVAL_PERSON_ORGANIZATION ( #6, #72, #229 ) ;
#120 = PLANE ( 'NONE',  #14 ) ;
#121 = DIRECTION ( 'NONE',  ( 0.000000000000000000, 0.000000000000000000, 1.000000000000000000 ) ) ;
#122 = DIRECTION ( 'NONE',  ( 1.000000000000000000, 0.000000000000000000, -0.000000000000000000 ) ) ;
#123 = APPROVAL_DATE_TIME ( #150, #54 ) ;
#124 = EDGE_CURVE ( 'NONE', #90, #70, #211, .T. ) ;
#125 = PERSON_AND_ORGANIZATION_ROLE ( 'design_supplier' ) ;
#126 = AXIS2_PLACEMENT_3D ( 'NONE', #41, #21, #58 ) ;
#127 = APPLICATION_PROTOCOL_DEFINITION ( 'international standard', 'config_control_design', 1994, #177 ) ;
#128 = AXIS2_PLACEMENT_3D ( 'NONE', #220, #99, #22 ) ;
#129 = APPROVAL_PERSON_ORGANIZATION ( #191, #54, #226 ) ;
#130 = ADVANCED_FACE ( 'NONE', ( #142 ), #187, .T. ) ;
#131 = PRODUCT_DEFINITION_SHAPE ( 'NONE', 'NONE',  #104 ) ;
#132 = ORIENTED_EDGE ( 'NONE', *, *, #17, .F. ) ;
#133 = EDGE_CURVE ( 'NONE', #70, #90, #160, .T. ) ;
#134 = ORIENTED_EDGE ( 'NONE', *, *, #133, .F. ) ;
#135 = UNCERTAINTY_MEASURE_WITH_UNIT (LENGTH_MEASURE( 1.000000000000000082E-05 ), #242, 'distance_accuracy_value', 'NONE');
#136 = ORIENTED_EDGE ( 'NONE', *, *, #62, .F. ) ;
#137 = CC_DESIGN_DATE_AND_TIME_ASSIGNMENT ( #244, #224, ( #104 ) ) ;
#138 = FACE_OUTER_BOUND ( 'NONE', #91, .T. ) ;
#139 = AXIS2_PLACEMENT_3D ( 'NONE', #102, #57, #238 ) ;
#140 = CARTESIAN_POINT ( 'NONE',  ( 0.000000000000000000, 0.000000000000000000, 315.0000000000000000 ) ) ;
#141 = APPROVAL_PERSON_ORGANIZATION ( #109, #81, #246 ) ;
#142 = FACE_OUTER_BOUND ( 'NONE', #253, .T. ) ;
#143 = CC_DESIGN_PERSON_AND_ORGANIZATION_ASSIGNMENT ( #172, #46, ( #104 ) ) ;
#144 = PLANE ( 'NONE',  #174 ) ;
#145 = VECTOR ( 'NONE', #241, 1000.000000000000000 ) ;
#146 = DIRECTION ( 'NONE',  ( 0.000000000000000000, 0.000000000000000000, 1.000000000000000000 ) ) ;
#147 = EDGE_CURVE ( 'NONE', #13, #92, #24, .T. ) ;
#148 = DIRECTION ( 'NONE',  ( 1.000000000000000000, 0.000000000000000000, 0.000000000000000000 ) ) ;
#149 = AXIS2_PLACEMENT_3D ( 'NONE', #7, #5, #148 ) ;
#150 = DATE_AND_TIME ( #213, #243 ) ;
#151 = PERSON_AND_ORGANIZATION_ROLE ( 'design_owner' ) ;
#152 = APPROVAL_STATUS ( 'not_yet_approved' ) ;
#153 = CC_DESIGN_PERSON_AND_ORGANIZATION_ASSIGNMENT ( #173, #125, ( #103 ) ) ;
#154 = ORIENTED_EDGE ( 'NONE', *, *, #85, .F. ) ;
#155 = ORIENTED_EDGE ( 'NONE', *, *, #20, .F. ) ;
#156 = SHAPE_DEFINITION_REPRESENTATION ( #131, #89 ) ;
#157 = CARTESIAN_POINT ( 'NONE',  ( -2.250000000000000000, 0.000000000000000000, 315.0000000000000000 ) ) ;
#158 = ORIENTED_EDGE ( 'NONE', *, *, #107, .T. ) ;
#159 = CARTESIAN_POINT ( 'NONE',  ( 4.000000000000000000, 4.898587196589412829E-16, 3.000000000000000000 ) ) ;
#160 = CIRCLE ( 'NONE', #128, 4.000000000000000000 ) ;
#161 = DIRECTION ( 'NONE',  ( 1.000000000000000000, 0.000000000000000000, 0.000000000000000000 ) ) ;
#162 = DIRECTION ( 'NONE',  ( 0.000000000000000000, 0.000000000000000000, 1.000000000000000000 ) ) ;
#163 = DESIGN_CONTEXT ( 'detailed design', #27, 'design' ) ;
#164 = CARTESIAN_POINT ( 'NONE',  ( 4.000000000000000000, 4.898587196589412829E-16, 0.000000000000000000 ) ) ;
#165 = CIRCLE ( 'NONE', #49, 2.250000000000000000 ) ;
#166 = DIRECTION ( 'NONE',  ( -0.000000000000000000, -0.000000000000000000, -1.000000000000000000 ) ) ;
#167 = CARTESIAN_POINT ( 'NONE',  ( 0.000000000000000000, 0.000000000000000000, 3.000000000000000000 ) ) ;
#168 = VECTOR ( 'NONE', #52, 1000.000000000000000 ) ;
#169 = DATE_AND_TIME ( #170, #231 ) ;
#170 = CALENDAR_DATE ( 2023, 13, 2 ) ;
#171 = PERSON_AND_ORGANIZATION ( #111, #186 ) ;
#172 = PERSON_AND_ORGANIZATION ( #111, #186 ) ;
#173 = PERSON_AND_ORGANIZATION ( #111, #186 ) ;
#174 = AXIS2_PLACEMENT_3D ( 'NONE', #223, #98, #122 ) ;
#175 = ORIENTED_EDGE ( 'NONE', *, *, #107, .F. ) ;
#176 = VERTEX_POINT ( 'NONE', #61 ) ;
#177 = APPLICATION_CONTEXT ( 'configuration controlled 3d designs of mechanical parts and assemblies' ) ;
#178 = LINE ( 'NONE', #157, #168 ) ;
#179 = DIRECTION ( 'NONE',  ( 1.000000000000000000, 0.000000000000000000, 0.000000000000000000 ) ) ;
#180 = LINE ( 'NONE', #159, #95 ) ;
#181 = DIRECTION ( 'NONE',  ( 0.000000000000000000, 0.000000000000000000, 1.000000000000000000 ) ) ;
#182 = VECTOR ( 'NONE', #166, 1000.000000000000000 ) ;
#183 = CARTESIAN_POINT ( 'NONE',  ( -4.000000000000000000, 0.000000000000000000, 3.000000000000000000 ) ) ;
#184 = CARTESIAN_POINT ( 'NONE',  ( 0.000000000000000000, 0.000000000000000000, 315.0000000000000000 ) ) ;
#185 = DIRECTION ( 'NONE',  ( 0.000000000000000000, 0.000000000000000000, 1.000000000000000000 ) ) ;
#186 = ORGANIZATION ( 'NEURÈENÝ', 'NEURÈENÝ', '' ) ;
#187 = CYLINDRICAL_SURFACE ( 'NONE', #45, 2.250000000000000000 ) ;
#188 = CC_DESIGN_PERSON_AND_ORGANIZATION_ASSIGNMENT ( #30, #210, ( #103 ) ) ;
#189 = SECURITY_CLASSIFICATION_LEVEL ( 'unclassified' ) ;
#190 = DATE_TIME_ROLE ( 'classification_date' ) ;
#191 = PERSON_AND_ORGANIZATION ( #111, #186 ) ;
#192 = APPLICATION_PROTOCOL_DEFINITION ( 'international standard', 'config_control_design', 1994, #27 ) ;
#193 = ADVANCED_FACE ( 'NONE', ( #39 ), #120, .F. ) ;
#194 = EDGE_CURVE ( 'NONE', #33, #176, #165, .T. ) ;
#195 = DATE_AND_TIME ( #12, #245 ) ;
#196 = ORIENTED_EDGE ( 'NONE', *, *, #88, .T. ) ;
#197 = CARTESIAN_POINT ( 'NONE',  ( -2.250000000000000000, 0.000000000000000000, 3.000000000000000000 ) ) ;
#198 = DIRECTION ( 'NONE',  ( 0.000000000000000000, 0.000000000000000000, 1.000000000000000000 ) ) ;
#199 = CC_DESIGN_APPROVAL ( #54, ( #103 ) ) ;
#200 = DIRECTION ( 'NONE',  ( -0.000000000000000000, -0.000000000000000000, -1.000000000000000000 ) ) ;
#201 = EDGE_CURVE ( 'NONE', #73, #70, #3, .T. ) ;
#202 = CIRCLE ( 'NONE', #110, 4.000000000000000000 ) ;
#203 = DIRECTION ( 'NONE',  ( 1.000000000000000000, 0.000000000000000000, 0.000000000000000000 ) ) ;
#204 = FACE_OUTER_BOUND ( 'NONE', #230, .T. ) ;
#205 = DIRECTION ( 'NONE',  ( -0.000000000000000000, -0.000000000000000000, -1.000000000000000000 ) ) ;
#206 = FACE_BOUND ( 'NONE', #232, .T. ) ;
#207 = CIRCLE ( 'NONE', #34, 2.250000000000000000 ) ;
#208 = ADVANCED_FACE ( 'NONE', ( #38 ), #144, .T. ) ;
#209 = CYLINDRICAL_SURFACE ( 'NONE', #228, 2.250000000000000000 ) ;
#210 = PERSON_AND_ORGANIZATION_ROLE ( 'creator' ) ;
#211 = CIRCLE ( 'NONE', #126, 4.000000000000000000 ) ;
#212 = APPROVAL_DATE_TIME ( #10, #81 ) ;
#213 = CALENDAR_DATE ( 2023, 13, 2 ) ;
#214 = ORIENTED_EDGE ( 'NONE', *, *, #201, .T. ) ;
#215 = ORIENTED_EDGE ( 'NONE', *, *, #20, .T. ) ;
#216 = LOCAL_TIME ( 16, 4, 0.000000000000000000, #87 ) ;
#217 = ORIENTED_EDGE ( 'NONE', *, *, #17, .T. ) ;
#218 = CIRCLE ( 'NONE', #106, 4.000000000000000000 ) ;
#219 = DIRECTION ( 'NONE',  ( 1.000000000000000000, 0.000000000000000000, 0.000000000000000000 ) ) ;
#220 = CARTESIAN_POINT ( 'NONE',  ( 0.000000000000000000, 0.000000000000000000, 0.000000000000000000 ) ) ;
#221 = LOCAL_TIME ( 16, 4, 0.000000000000000000, #26 ) ;
#222 = DIRECTION ( 'NONE',  ( -0.000000000000000000, -0.000000000000000000, -1.000000000000000000 ) ) ;
#223 = CARTESIAN_POINT ( 'NONE',  ( 0.000000000000000000, 0.000000000000000000, 315.0000000000000000 ) ) ;
#224 = DATE_TIME_ROLE ( 'creation_date' ) ;
#225 = CARTESIAN_POINT ( 'NONE',  ( 4.000000000000000000, 4.898587196589412829E-16, 3.000000000000000000 ) ) ;
#226 = APPROVAL_ROLE ( '' ) ;
#227 = ADVANCED_FACE ( 'NONE', ( #117 ), #18, .T. ) ;
#228 = AXIS2_PLACEMENT_3D ( 'NONE', #184, #205, #77 ) ;
#229 = APPROVAL_ROLE ( '' ) ;
#230 = EDGE_LOOP ( 'NONE', ( #196, #114 ) ) ;
#231 = LOCAL_TIME ( 16, 4, 0.000000000000000000, #83 ) ;
#232 = EDGE_LOOP ( 'NONE', ( #113, #155 ) ) ;
#233 = APPROVAL_DATE_TIME ( #195, #72 ) ;
#234 = ORIENTED_EDGE ( 'NONE', *, *, #60, .T. ) ;
#235 = ORIENTED_EDGE ( 'NONE', *, *, #124, .T. ) ;
#236 = CARTESIAN_POINT ( 'NONE',  ( 0.000000000000000000, 0.000000000000000000, 3.000000000000000000 ) ) ;
#237 = CLOSED_SHELL ( 'NONE', ( #130, #227, #29, #101, #193, #96, #208 ) ) ;
#238 = DIRECTION ( 'NONE',  ( 1.000000000000000000, 0.000000000000000000, 0.000000000000000000 ) ) ;
#239 = DIRECTION ( 'NONE',  ( 1.000000000000000000, 0.000000000000000000, -0.000000000000000000 ) ) ;
#240 = DIRECTION ( 'NONE',  ( -0.000000000000000000, -0.000000000000000000, -1.000000000000000000 ) ) ;
#241 = DIRECTION ( 'NONE',  ( -0.000000000000000000, -0.000000000000000000, -1.000000000000000000 ) ) ;
#242 =( LENGTH_UNIT ( ) NAMED_UNIT ( * ) SI_UNIT ( .MILLI., .METRE. ) );
#243 = LOCAL_TIME ( 16, 4, 0.000000000000000000, #43 ) ;
#244 = DATE_AND_TIME ( #108, #221 ) ;
#245 = LOCAL_TIME ( 16, 4, 0.000000000000000000, #251 ) ;
#246 = APPROVAL_ROLE ( '' ) ;
#247 = ORIENTED_EDGE ( 'NONE', *, *, #133, .T. ) ;
#248 = AXIS2_PLACEMENT_3D ( 'NONE', #167, #181, #239 ) ;
#249 = ORIENTED_EDGE ( 'NONE', *, *, #147, .T. ) ;
#250 = VERTEX_POINT ( 'NONE', #225 ) ;
#251 = COORDINATED_UNIVERSAL_TIME_OFFSET ( 1, 0, .AHEAD. ) ;
#252 = CYLINDRICAL_SURFACE ( 'NONE', #68, 4.000000000000000000 ) ;
#253 = EDGE_LOOP ( 'NONE', ( #71, #158, #215, #132 ) ) ;
#254 = LINE ( 'NONE', #23, #145 ) ;
#255 =( GEOMETRIC_REPRESENTATION_CONTEXT ( 3 ) GLOBAL_UNCERTAINTY_ASSIGNED_CONTEXT ( ( #135 ) ) GLOBAL_UNIT_ASSIGNED_CONTEXT ( ( #242, #64, #105 ) ) REPRESENTATION_CONTEXT ( 'NONE', 'WORKASPACE' ) );
ENDSEC;
END-ISO-10303-21;
