ISO-10303-21;
HEADER;
FILE_DESCRIPTION (( 'STEP AP203' ),
    '1' );
FILE_NAME ('1729.STEP',
    '2023-01-31T14:47:10',
    ( '' ),
    ( '' ),
    'SwSTEP 2.0',
    'SolidWorks 2019',
    '' );
FILE_SCHEMA (( 'CONFIG_CONTROL_DESIGN' ));
ENDSEC;

DATA;
#1 = ORIENTED_EDGE ( 'NONE', *, *, #72, .T. ) ;
#2 = DATE_AND_TIME ( #182, #201 ) ;
#3 = SECURITY_CLASSIFICATION ( '', '', #66 ) ;
#4 = APPROVAL_DATE_TIME ( #147, #215 ) ;
#5 = DIRECTION ( 'NONE',  ( 0.000000000000000000, 0.000000000000000000, 1.000000000000000000 ) ) ;
#6 = PERSON_AND_ORGANIZATION ( #82, #195 ) ;
#7 = DIRECTION ( 'NONE',  ( -1.000000000000000000, 0.000000000000000000, 0.000000000000000000 ) ) ;
#8 = MANIFOLD_SOLID_BREP ( 'Pøidat vysunutím3', #64 ) ;
#9 = AXIS2_PLACEMENT_3D ( 'NONE', #166, #47, #13 ) ;
#10 = CARTESIAN_POINT ( 'NONE',  ( 0.000000000000000000, 0.000000000000000000, 100.0000000000000000 ) ) ;
#11 = CC_DESIGN_DATE_AND_TIME_ASSIGNMENT ( #2, #61, ( #78 ) ) ;
#12 = VECTOR ( 'NONE', #194, 1000.000000000000000 ) ;
#13 = DIRECTION ( 'NONE',  ( 1.000000000000000000, 0.000000000000000000, 0.000000000000000000 ) ) ;
#14 = EDGE_LOOP ( 'NONE', ( #245, #50 ) ) ;
#15 = FACE_OUTER_BOUND ( 'NONE', #41, .T. ) ;
#16 = EDGE_CURVE ( 'NONE', #225, #151, #56, .T. ) ;
#17 = CARTESIAN_POINT ( 'NONE',  ( 0.000000000000000000, 0.000000000000000000, 0.000000000000000000 ) ) ;
#18 = CARTESIAN_POINT ( 'NONE',  ( 0.000000000000000000, 0.000000000000000000, 1.199999999999999956 ) ) ;
#19 = AXIS2_PLACEMENT_3D ( 'NONE', #153, #188, #91 ) ;
#20 = DIRECTION ( 'NONE',  ( 1.000000000000000000, 0.000000000000000000, -0.000000000000000000 ) ) ;
#21 = EDGE_CURVE ( 'NONE', #92, #63, #100, .T. ) ;
#22 = DIRECTION ( 'NONE',  ( 1.000000000000000000, 0.000000000000000000, 0.000000000000000000 ) ) ;
#23 = COORDINATED_UNIVERSAL_TIME_OFFSET ( 1, 0, .AHEAD. ) ;
#24 = PRODUCT_RELATED_PRODUCT_CATEGORY ( 'detail', '', ( #95 ) ) ;
#25 = LINE ( 'NONE', #210, #42 ) ;
#26 = DATE_AND_TIME ( #70, #163 ) ;
#27 = ORIENTED_EDGE ( 'NONE', *, *, #190, .T. ) ;
#28 = DIRECTION ( 'NONE',  ( -0.000000000000000000, -0.000000000000000000, -1.000000000000000000 ) ) ;
#29 = PLANE ( 'NONE',  #88 ) ;
#30 = PLANE ( 'NONE',  #222 ) ;
#31 = EDGE_CURVE ( 'NONE', #148, #229, #174, .T. ) ;
#32 = DIRECTION ( 'NONE',  ( -1.000000000000000000, 0.000000000000000000, 0.000000000000000000 ) ) ;
#33 = AXIS2_PLACEMENT_3D ( 'NONE', #76, #110, #20 ) ;
#34 = CARTESIAN_POINT ( 'NONE',  ( -0.5000000000000000000, 0.000000000000000000, 1.199999999999999956 ) ) ;
#35 = APPLICATION_CONTEXT ( 'configuration controlled 3d designs of mechanical parts and assemblies' ) ;
#36 =( NAMED_UNIT ( * ) PLANE_ANGLE_UNIT ( ) SI_UNIT ( $, .RADIAN. ) );
#37 = DIRECTION ( 'NONE',  ( -1.000000000000000000, 0.000000000000000000, 0.000000000000000000 ) ) ;
#38 = AXIS2_PLACEMENT_3D ( 'NONE', #54, #138, #154 ) ;
#39 = ORIENTED_EDGE ( 'NONE', *, *, #219, .F. ) ;
#40 = ADVANCED_FACE ( 'NONE', ( #149 ), #29, .T. ) ;
#41 = EDGE_LOOP ( 'NONE', ( #209, #134 ) ) ;
#42 = VECTOR ( 'NONE', #228, 1000.000000000000000 ) ;
#43 = PRODUCT_DEFINITION_SHAPE ( 'NONE', 'NONE',  #78 ) ;
#44 = APPROVAL_PERSON_ORGANIZATION ( #239, #215, #104 ) ;
#45 = APPROVAL_STATUS ( 'not_yet_approved' ) ;
#46 = APPROVAL_ROLE ( '' ) ;
#47 = DIRECTION ( 'NONE',  ( 0.000000000000000000, 0.000000000000000000, 1.000000000000000000 ) ) ;
#48 = ORIENTED_EDGE ( 'NONE', *, *, #16, .T. ) ;
#49 = LOCAL_TIME ( 15, 47, 10.00000000000000000, #99 ) ;
#50 = ORIENTED_EDGE ( 'NONE', *, *, #31, .T. ) ;
#51 = VERTEX_POINT ( 'NONE', #124 ) ;
#52 = DIRECTION ( 'NONE',  ( 0.000000000000000000, 0.000000000000000000, 1.000000000000000000 ) ) ;
#53 = AXIS2_PLACEMENT_3D ( 'NONE', #17, #237, #59 ) ;
#54 = CARTESIAN_POINT ( 'NONE',  ( 0.000000000000000000, 0.000000000000000000, 100.0000000000000000 ) ) ;
#55 = DIRECTION ( 'NONE',  ( 1.000000000000000000, 0.000000000000000000, -0.000000000000000000 ) ) ;
#56 = CIRCLE ( 'NONE', #111, 0.5000000000000000000 ) ;
#57 = AXIS2_PLACEMENT_3D ( 'NONE', #192, #97, #79 ) ;
#58 = EDGE_CURVE ( 'NONE', #51, #151, #25, .T. ) ;
#59 = DIRECTION ( 'NONE',  ( 1.000000000000000000, 0.000000000000000000, 0.000000000000000000 ) ) ;
#60 = FACE_OUTER_BOUND ( 'NONE', #14, .T. ) ;
#61 = DATE_TIME_ROLE ( 'creation_date' ) ;
#62 = CC_DESIGN_APPROVAL ( #215, ( #78 ) ) ;
#63 = VERTEX_POINT ( 'NONE', #164 ) ;
#64 = CLOSED_SHELL ( 'NONE', ( #87, #126, #156, #236, #246, #186, #40 ) ) ;
#65 = AXIS2_PLACEMENT_3D ( 'NONE', #93, #141, #32 ) ;
#66 = SECURITY_CLASSIFICATION_LEVEL ( 'unclassified' ) ;
#67 = COORDINATED_UNIVERSAL_TIME_OFFSET ( 1, 0, .AHEAD. ) ;
#68 = CALENDAR_DATE ( 2023, 31, 1 ) ;
#69 = DIRECTION ( 'NONE',  ( -0.000000000000000000, -0.000000000000000000, -1.000000000000000000 ) ) ;
#70 = CALENDAR_DATE ( 2023, 31, 1 ) ;
#71 = EDGE_LOOP ( 'NONE', ( #119, #198, #128, #48 ) ) ;
#72 = EDGE_CURVE ( 'NONE', #148, #92, #183, .T. ) ;
#73 = DIRECTION ( 'NONE',  ( -1.000000000000000000, 0.000000000000000000, 0.000000000000000000 ) ) ;
#74 = CARTESIAN_POINT ( 'NONE',  ( 1.250000000000000000, 1.530808498934191571E-16, 0.000000000000000000 ) ) ;
#75 = DIRECTION ( 'NONE',  ( 1.000000000000000000, 0.000000000000000000, 0.000000000000000000 ) ) ;
#76 = CARTESIAN_POINT ( 'NONE',  ( 0.000000000000000000, 0.000000000000000000, 0.000000000000000000 ) ) ;
#77 = CC_DESIGN_APPROVAL ( #120, ( #114 ) ) ;
#78 = PRODUCT_DEFINITION ( 'NEZNÁMÝ', '', #114, #112 ) ;
#79 = DIRECTION ( 'NONE',  ( 1.000000000000000000, 0.000000000000000000, 0.000000000000000000 ) ) ;
#80 = PERSON_AND_ORGANIZATION_ROLE ( 'design_owner' ) ;
#81 = APPROVAL_ROLE ( '' ) ;
#82 = PERSON ( 'NEURÈENÝ', 'NEURÈENÝ', 'NEURÈENÝ', ('NEURÈENÝ'), ('NEURÈENÝ'), ('NEURÈENÝ') ) ;
#83 = ORIENTED_EDGE ( 'NONE', *, *, #137, .T. ) ;
#84 = CC_DESIGN_DATE_AND_TIME_ASSIGNMENT ( #142, #247, ( #3 ) ) ;
#85 = ORIENTED_EDGE ( 'NONE', *, *, #172, .F. ) ;
#86 = ORIENTED_EDGE ( 'NONE', *, *, #31, .F. ) ;
#87 = ADVANCED_FACE ( 'NONE', ( #226 ), #127, .T. ) ;
#88 = AXIS2_PLACEMENT_3D ( 'NONE', #10, #189, #181 ) ;
#89 = CARTESIAN_POINT ( 'NONE',  ( 0.000000000000000000, 0.000000000000000000, 100.0000000000000000 ) ) ;
#90 = APPROVAL_PERSON_ORGANIZATION ( #6, #170, #81 ) ;
#91 = DIRECTION ( 'NONE',  ( 1.000000000000000000, 0.000000000000000000, 0.000000000000000000 ) ) ;
#92 = VERTEX_POINT ( 'NONE', #74 ) ;
#93 = CARTESIAN_POINT ( 'NONE',  ( 0.000000000000000000, 0.000000000000000000, 1.199999999999999956 ) ) ;
#94 = MECHANICAL_CONTEXT ( 'NONE', #35, 'mechanical' ) ;
#95 = PRODUCT ( '1729', '1729', '', ( #94 ) ) ;
#96 = AXIS2_PLACEMENT_3D ( 'NONE', #89, #28, #7 ) ;
#97 = DIRECTION ( 'NONE',  ( 0.000000000000000000, 0.000000000000000000, 1.000000000000000000 ) ) ;
#98 = FACE_BOUND ( 'NONE', #211, .T. ) ;
#99 = COORDINATED_UNIVERSAL_TIME_OFFSET ( 1, 0, .AHEAD. ) ;
#100 = CIRCLE ( 'NONE', #9, 1.250000000000000000 ) ;
#101 = EDGE_LOOP ( 'NONE', ( #118, #162, #250, #85 ) ) ;
#102 = APPROVAL_STATUS ( 'not_yet_approved' ) ;
#103 = EDGE_LOOP ( 'NONE', ( #143, #171, #27, #220 ) ) ;
#104 = APPROVAL_ROLE ( '' ) ;
#105 = VERTEX_POINT ( 'NONE', #207 ) ;
#106 = ORIENTED_EDGE ( 'NONE', *, *, #21, .T. ) ;
#107 = LOCAL_TIME ( 15, 47, 10.00000000000000000, #217 ) ;
#108 = CARTESIAN_POINT ( 'NONE',  ( 0.000000000000000000, 0.000000000000000000, 1.199999999999999956 ) ) ;
#109 = ORIENTED_EDGE ( 'NONE', *, *, #197, .T. ) ;
#110 = DIRECTION ( 'NONE',  ( 0.000000000000000000, 0.000000000000000000, 1.000000000000000000 ) ) ;
#111 = AXIS2_PLACEMENT_3D ( 'NONE', #185, #52, #22 ) ;
#112 = DESIGN_CONTEXT ( 'detailed design', #131, 'design' ) ;
#113 = LINE ( 'NONE', #136, #179 ) ;
#114 = PRODUCT_DEFINITION_FORMATION_WITH_SPECIFIED_SOURCE ( 'LIBOVOLNÝ', '', #95, .NOT_KNOWN. ) ;
#115 =( NAMED_UNIT ( * ) SI_UNIT ( $, .STERADIAN. ) SOLID_ANGLE_UNIT ( ) );
#116 = LINE ( 'NONE', #193, #12 ) ;
#117 = DATE_AND_TIME ( #240, #187 ) ;
#118 = ORIENTED_EDGE ( 'NONE', *, *, #137, .F. ) ;
#119 = ORIENTED_EDGE ( 'NONE', *, *, #58, .F. ) ;
#120 = APPROVAL ( #102, 'NEURÈENÝ' ) ;
#121 = SHAPE_DEFINITION_REPRESENTATION ( #43, #184 ) ;
#122 = ORIENTED_EDGE ( 'NONE', *, *, #190, .F. ) ;
#123 = PERSON_AND_ORGANIZATION ( #82, #195 ) ;
#124 = CARTESIAN_POINT ( 'NONE',  ( 0.5000000000000000000, 6.123233995736766036E-17, 100.0000000000000000 ) ) ;
#125 = APPLICATION_PROTOCOL_DEFINITION ( 'international standard', 'config_control_design', 1994, #131 ) ;
#126 = ADVANCED_FACE ( 'NONE', ( #248 ), #167, .T. ) ;
#127 = CYLINDRICAL_SURFACE ( 'NONE', #96, 0.5000000000000000000 ) ;
#128 = ORIENTED_EDGE ( 'NONE', *, *, #172, .T. ) ;
#129 = DIRECTION ( 'NONE',  ( 1.000000000000000000, 0.000000000000000000, 0.000000000000000000 ) ) ;
#130 = CC_DESIGN_PERSON_AND_ORGANIZATION_ASSIGNMENT ( #146, #223, ( #3 ) ) ;
#131 = APPLICATION_CONTEXT ( 'configuration controlled 3d designs of mechanical parts and assemblies' ) ;
#132 = AXIS2_PLACEMENT_3D ( 'NONE', #108, #249, #73 ) ;
#133 = AXIS2_PLACEMENT_3D ( 'NONE', #253, #213, #234 ) ;
#134 = ORIENTED_EDGE ( 'NONE', *, *, #21, .F. ) ;
#135 = CARTESIAN_POINT ( 'NONE',  ( 0.5000000000000000000, 6.123233995736766036E-17, 1.199999999999999956 ) ) ;
#136 = CARTESIAN_POINT ( 'NONE',  ( -0.5000000000000000000, 0.000000000000000000, 100.0000000000000000 ) ) ;
#137 = EDGE_CURVE ( 'NONE', #51, #105, #242, .T. ) ;
#138 = DIRECTION ( 'NONE',  ( 0.000000000000000000, 0.000000000000000000, 1.000000000000000000 ) ) ;
#139 =( GEOMETRIC_REPRESENTATION_CONTEXT ( 3 ) GLOBAL_UNCERTAINTY_ASSIGNED_CONTEXT ( ( #233 ) ) GLOBAL_UNIT_ASSIGNED_CONTEXT ( ( #231, #36, #115 ) ) REPRESENTATION_CONTEXT ( 'NONE', 'WORKASPACE' ) );
#140 = CARTESIAN_POINT ( 'NONE',  ( 0.000000000000000000, 0.000000000000000000, 1.199999999999999956 ) ) ;
#141 = DIRECTION ( 'NONE',  ( -0.000000000000000000, -0.000000000000000000, -1.000000000000000000 ) ) ;
#142 = DATE_AND_TIME ( #68, #107 ) ;
#143 = ORIENTED_EDGE ( 'NONE', *, *, #72, .F. ) ;
#144 = CC_DESIGN_PERSON_AND_ORGANIZATION_ASSIGNMENT ( #206, #80, ( #95 ) ) ;
#145 = CC_DESIGN_APPROVAL ( #170, ( #3 ) ) ;
#146 = PERSON_AND_ORGANIZATION ( #82, #195 ) ;
#147 = DATE_AND_TIME ( #224, #49 ) ;
#148 = VERTEX_POINT ( 'NONE', #169 ) ;
#149 = FACE_OUTER_BOUND ( 'NONE', #241, .T. ) ;
#150 = CIRCLE ( 'NONE', #57, 1.250000000000000000 ) ;
#151 = VERTEX_POINT ( 'NONE', #135 ) ;
#152 = CARTESIAN_POINT ( 'NONE',  ( 0.000000000000000000, 0.000000000000000000, 1.199999999999999956 ) ) ;
#153 = CARTESIAN_POINT ( 'NONE',  ( 0.000000000000000000, 0.000000000000000000, 100.0000000000000000 ) ) ;
#154 = DIRECTION ( 'NONE',  ( 1.000000000000000000, 0.000000000000000000, 0.000000000000000000 ) ) ;
#155 = CARTESIAN_POINT ( 'NONE',  ( 0.000000000000000000, 0.000000000000000000, 100.0000000000000000 ) ) ;
#156 = ADVANCED_FACE ( 'NONE', ( #212 ), #158, .T. ) ;
#157 = CIRCLE ( 'NONE', #133, 0.5000000000000000000 ) ;
#158 = CYLINDRICAL_SURFACE ( 'NONE', #65, 1.250000000000000000 ) ;
#159 = PERSON_AND_ORGANIZATION ( #82, #195 ) ;
#160 = AXIS2_PLACEMENT_3D ( 'NONE', #18, #176, #75 ) ;
#161 = EDGE_CURVE ( 'NONE', #229, #148, #205, .T. ) ;
#162 = ORIENTED_EDGE ( 'NONE', *, *, #58, .T. ) ;
#163 = LOCAL_TIME ( 15, 47, 10.00000000000000000, #208 ) ;
#164 = CARTESIAN_POINT ( 'NONE',  ( -1.250000000000000000, 0.000000000000000000, 0.000000000000000000 ) ) ;
#165 = APPROVAL_DATE_TIME ( #117, #120 ) ;
#166 = CARTESIAN_POINT ( 'NONE',  ( 0.000000000000000000, 0.000000000000000000, 0.000000000000000000 ) ) ;
#167 = CYLINDRICAL_SURFACE ( 'NONE', #132, 1.250000000000000000 ) ;
#168 = CC_DESIGN_PERSON_AND_ORGANIZATION_ASSIGNMENT ( #178, #180, ( #78 ) ) ;
#169 = CARTESIAN_POINT ( 'NONE',  ( 1.250000000000000000, 1.530808498934191571E-16, 1.199999999999999956 ) ) ;
#170 = APPROVAL ( #45, 'NEURÈENÝ' ) ;
#171 = ORIENTED_EDGE ( 'NONE', *, *, #161, .F. ) ;
#172 = EDGE_CURVE ( 'NONE', #105, #225, #113, .T. ) ;
#173 = FACE_OUTER_BOUND ( 'NONE', #71, .T. ) ;
#174 = CIRCLE ( 'NONE', #199, 1.250000000000000000 ) ;
#175 = CC_DESIGN_PERSON_AND_ORGANIZATION_ASSIGNMENT ( #123, #227, ( #114 ) ) ;
#176 = DIRECTION ( 'NONE',  ( 0.000000000000000000, 0.000000000000000000, 1.000000000000000000 ) ) ;
#177 = CC_DESIGN_SECURITY_CLASSIFICATION ( #3, ( #114 ) ) ;
#178 = PERSON_AND_ORGANIZATION ( #82, #195 ) ;
#179 = VECTOR ( 'NONE', #252, 1000.000000000000000 ) ;
#180 = PERSON_AND_ORGANIZATION_ROLE ( 'creator' ) ;
#181 = DIRECTION ( 'NONE',  ( 1.000000000000000000, 0.000000000000000000, -0.000000000000000000 ) ) ;
#182 = CALENDAR_DATE ( 2023, 31, 1 ) ;
#183 = LINE ( 'NONE', #204, #235 ) ;
#184 = ADVANCED_BREP_SHAPE_REPRESENTATION ( '1729', ( #8, #53 ), #139 ) ;
#185 = CARTESIAN_POINT ( 'NONE',  ( 0.000000000000000000, 0.000000000000000000, 1.199999999999999956 ) ) ;
#186 = ADVANCED_FACE ( 'NONE', ( #173 ), #214, .T. ) ;
#187 = LOCAL_TIME ( 15, 47, 10.00000000000000000, #23 ) ;
#188 = DIRECTION ( 'NONE',  ( 0.000000000000000000, 0.000000000000000000, 1.000000000000000000 ) ) ;
#189 = DIRECTION ( 'NONE',  ( 0.000000000000000000, 0.000000000000000000, 1.000000000000000000 ) ) ;
#190 = EDGE_CURVE ( 'NONE', #229, #63, #116, .T. ) ;
#191 = CARTESIAN_POINT ( 'NONE',  ( -1.250000000000000000, 0.000000000000000000, 1.199999999999999956 ) ) ;
#192 = CARTESIAN_POINT ( 'NONE',  ( 0.000000000000000000, 0.000000000000000000, 0.000000000000000000 ) ) ;
#193 = CARTESIAN_POINT ( 'NONE',  ( -1.250000000000000000, 0.000000000000000000, 1.199999999999999956 ) ) ;
#194 = DIRECTION ( 'NONE',  ( -0.000000000000000000, -0.000000000000000000, -1.000000000000000000 ) ) ;
#195 = ORGANIZATION ( 'NEURÈENÝ', 'NEURÈENÝ', '' ) ;
#196 = PERSON_AND_ORGANIZATION ( #82, #195 ) ;
#197 = EDGE_CURVE ( 'NONE', #105, #51, #244, .T. ) ;
#198 = ORIENTED_EDGE ( 'NONE', *, *, #197, .F. ) ;
#199 = AXIS2_PLACEMENT_3D ( 'NONE', #152, #5, #129 ) ;
#200 = EDGE_LOOP ( 'NONE', ( #86, #1, #106, #122 ) ) ;
#201 = LOCAL_TIME ( 15, 47, 10.00000000000000000, #67 ) ;
#202 = APPROVAL_DATE_TIME ( #26, #170 ) ;
#203 = APPROVAL_STATUS ( 'not_yet_approved' ) ;
#204 = CARTESIAN_POINT ( 'NONE',  ( 1.250000000000000000, 1.530808498934191571E-16, 1.199999999999999956 ) ) ;
#205 = CIRCLE ( 'NONE', #160, 1.250000000000000000 ) ;
#206 = PERSON_AND_ORGANIZATION ( #82, #195 ) ;
#207 = CARTESIAN_POINT ( 'NONE',  ( -0.5000000000000000000, 0.000000000000000000, 100.0000000000000000 ) ) ;
#208 = COORDINATED_UNIVERSAL_TIME_OFFSET ( 1, 0, .AHEAD. ) ;
#209 = ORIENTED_EDGE ( 'NONE', *, *, #243, .F. ) ;
#210 = CARTESIAN_POINT ( 'NONE',  ( 0.5000000000000000000, 6.123233995736766036E-17, 100.0000000000000000 ) ) ;
#211 = EDGE_LOOP ( 'NONE', ( #251, #39 ) ) ;
#212 = FACE_OUTER_BOUND ( 'NONE', #103, .T. ) ;
#213 = DIRECTION ( 'NONE',  ( 0.000000000000000000, 0.000000000000000000, 1.000000000000000000 ) ) ;
#214 = CYLINDRICAL_SURFACE ( 'NONE', #230, 0.5000000000000000000 ) ;
#215 = APPROVAL ( #203, 'NEURÈENÝ' ) ;
#216 = DIRECTION ( 'NONE',  ( 0.000000000000000000, 0.000000000000000000, 1.000000000000000000 ) ) ;
#217 = COORDINATED_UNIVERSAL_TIME_OFFSET ( 1, 0, .AHEAD. ) ;
#218 = APPROVAL_PERSON_ORGANIZATION ( #159, #120, #46 ) ;
#219 = EDGE_CURVE ( 'NONE', #151, #225, #157, .T. ) ;
#220 = ORIENTED_EDGE ( 'NONE', *, *, #243, .T. ) ;
#221 = CC_DESIGN_PERSON_AND_ORGANIZATION_ASSIGNMENT ( #196, #255, ( #114 ) ) ;
#222 = AXIS2_PLACEMENT_3D ( 'NONE', #140, #216, #55 ) ;
#223 = PERSON_AND_ORGANIZATION_ROLE ( 'classification_officer' ) ;
#224 = CALENDAR_DATE ( 2023, 31, 1 ) ;
#225 = VERTEX_POINT ( 'NONE', #34 ) ;
#226 = FACE_OUTER_BOUND ( 'NONE', #101, .T. ) ;
#227 = PERSON_AND_ORGANIZATION_ROLE ( 'design_supplier' ) ;
#228 = DIRECTION ( 'NONE',  ( -0.000000000000000000, -0.000000000000000000, -1.000000000000000000 ) ) ;
#229 = VERTEX_POINT ( 'NONE', #191 ) ;
#230 = AXIS2_PLACEMENT_3D ( 'NONE', #155, #232, #37 ) ;
#231 =( LENGTH_UNIT ( ) NAMED_UNIT ( * ) SI_UNIT ( .MILLI., .METRE. ) );
#232 = DIRECTION ( 'NONE',  ( -0.000000000000000000, -0.000000000000000000, -1.000000000000000000 ) ) ;
#233 = UNCERTAINTY_MEASURE_WITH_UNIT (LENGTH_MEASURE( 1.000000000000000082E-05 ), #231, 'distance_accuracy_value', 'NONE');
#234 = DIRECTION ( 'NONE',  ( 1.000000000000000000, 0.000000000000000000, 0.000000000000000000 ) ) ;
#235 = VECTOR ( 'NONE', #69, 1000.000000000000000 ) ;
#236 = ADVANCED_FACE ( 'NONE', ( #98, #60 ), #30, .T. ) ;
#237 = DIRECTION ( 'NONE',  ( 0.000000000000000000, 0.000000000000000000, 1.000000000000000000 ) ) ;
#238 = PLANE ( 'NONE',  #33 ) ;
#239 = PERSON_AND_ORGANIZATION ( #82, #195 ) ;
#240 = CALENDAR_DATE ( 2023, 31, 1 ) ;
#241 = EDGE_LOOP ( 'NONE', ( #109, #83 ) ) ;
#242 = CIRCLE ( 'NONE', #19, 0.5000000000000000000 ) ;
#243 = EDGE_CURVE ( 'NONE', #63, #92, #150, .T. ) ;
#244 = CIRCLE ( 'NONE', #38, 0.5000000000000000000 ) ;
#245 = ORIENTED_EDGE ( 'NONE', *, *, #161, .T. ) ;
#246 = ADVANCED_FACE ( 'NONE', ( #15 ), #238, .F. ) ;
#247 = DATE_TIME_ROLE ( 'classification_date' ) ;
#248 = FACE_OUTER_BOUND ( 'NONE', #200, .T. ) ;
#249 = DIRECTION ( 'NONE',  ( -0.000000000000000000, -0.000000000000000000, -1.000000000000000000 ) ) ;
#250 = ORIENTED_EDGE ( 'NONE', *, *, #219, .T. ) ;
#251 = ORIENTED_EDGE ( 'NONE', *, *, #16, .F. ) ;
#252 = DIRECTION ( 'NONE',  ( -0.000000000000000000, -0.000000000000000000, -1.000000000000000000 ) ) ;
#253 = CARTESIAN_POINT ( 'NONE',  ( 0.000000000000000000, 0.000000000000000000, 1.199999999999999956 ) ) ;
#254 = APPLICATION_PROTOCOL_DEFINITION ( 'international standard', 'config_control_design', 1994, #35 ) ;
#255 = PERSON_AND_ORGANIZATION_ROLE ( 'creator' ) ;
ENDSEC;
END-ISO-10303-21;
