ISO-10303-21;
HEADER;
FILE_DESCRIPTION (( 'STEP AP203' ),
    '1' );
FILE_NAME ('e731.STEP',
    '2023-02-13T13:27:55',
    ( '' ),
    ( '' ),
    'SwSTEP 2.0',
    'SolidWorks 2019',
    '' );
FILE_SCHEMA (( 'CONFIG_CONTROL_DESIGN' ));
ENDSEC;

DATA;
#1 = CIRCLE ( 'NONE', #166, 2.250000000000000000 ) ;
#2 = COORDINATED_UNIVERSAL_TIME_OFFSET ( 1, 0, .AHEAD. ) ;
#3 = CC_DESIGN_PERSON_AND_ORGANIZATION_ASSIGNMENT ( #149, #187, ( #25 ) ) ;
#4 = DATE_AND_TIME ( #113, #169 ) ;
#5 = AXIS2_PLACEMENT_3D ( 'NONE', #138, #227, #174 ) ;
#6 = ORIENTED_EDGE ( 'NONE', *, *, #186, .T. ) ;
#7 = CC_DESIGN_PERSON_AND_ORGANIZATION_ASSIGNMENT ( #62, #58, ( #25 ) ) ;
#8 = ORIENTED_EDGE ( 'NONE', *, *, #48, .T. ) ;
#9 = DIRECTION ( 'NONE',  ( -0.000000000000000000, -0.000000000000000000, -1.000000000000000000 ) ) ;
#10 = COORDINATED_UNIVERSAL_TIME_OFFSET ( 1, 0, .AHEAD. ) ;
#11 = APPROVAL_PERSON_ORGANIZATION ( #13, #190, #121 ) ;
#12 = CARTESIAN_POINT ( 'NONE',  ( -4.000000000000000000, 0.000000000000000000, 3.000000000000000000 ) ) ;
#13 = PERSON_AND_ORGANIZATION ( #246, #210 ) ;
#14 = ORIENTED_EDGE ( 'NONE', *, *, #48, .F. ) ;
#15 = CARTESIAN_POINT ( 'NONE',  ( -2.250000000000000000, 0.000000000000000000, 3.000000000000000000 ) ) ;
#16 = DIRECTION ( 'NONE',  ( -1.000000000000000000, 0.000000000000000000, 0.000000000000000000 ) ) ;
#17 = DIRECTION ( 'NONE',  ( -0.000000000000000000, -0.000000000000000000, -1.000000000000000000 ) ) ;
#18 = CALENDAR_DATE ( 2023, 13, 2 ) ;
#19 = ORIENTED_EDGE ( 'NONE', *, *, #110, .F. ) ;
#20 = SECURITY_CLASSIFICATION_LEVEL ( 'unclassified' ) ;
#21 = APPROVAL_PERSON_ORGANIZATION ( #134, #52, #78 ) ;
#22 = APPROVAL_DATE_TIME ( #4, #39 ) ;
#23 = ORIENTED_EDGE ( 'NONE', *, *, #238, .T. ) ;
#24 = EDGE_LOOP ( 'NONE', ( #98, #102 ) ) ;
#25 = PRODUCT_DEFINITION_FORMATION_WITH_SPECIFIED_SOURCE ( 'LIBOVOLNÝ', '', #191, .NOT_KNOWN. ) ;
#26 = ORIENTED_EDGE ( 'NONE', *, *, #105, .F. ) ;
#27 = CARTESIAN_POINT ( 'NONE',  ( 2.250000000000000000, 2.755455298081544285E-16, 250.0000000000000000 ) ) ;
#28 = VERTEX_POINT ( 'NONE', #195 ) ;
#29 = VECTOR ( 'NONE', #46, 1000.000000000000000 ) ;
#30 = LOCAL_TIME ( 14, 27, 55.00000000000000000, #235 ) ;
#31 = ADVANCED_FACE ( 'NONE', ( #103 ), #177, .T. ) ;
#32 = ORIENTED_EDGE ( 'NONE', *, *, #221, .F. ) ;
#33 = VERTEX_POINT ( 'NONE', #15 ) ;
#34 = UNCERTAINTY_MEASURE_WITH_UNIT (LENGTH_MEASURE( 1.000000000000000082E-05 ), #144, 'distance_accuracy_value', 'NONE');
#35 = CIRCLE ( 'NONE', #5, 4.000000000000000000 ) ;
#36 = CYLINDRICAL_SURFACE ( 'NONE', #50, 2.250000000000000000 ) ;
#37 = DIRECTION ( 'NONE',  ( 1.000000000000000000, 0.000000000000000000, -0.000000000000000000 ) ) ;
#38 = CARTESIAN_POINT ( 'NONE',  ( 0.000000000000000000, 0.000000000000000000, 0.000000000000000000 ) ) ;
#39 = APPROVAL ( #114, 'NEURÈENÝ' ) ;
#40 = CARTESIAN_POINT ( 'NONE',  ( 4.000000000000000000, 4.898587196589412829E-16, 0.000000000000000000 ) ) ;
#41 = VERTEX_POINT ( 'NONE', #160 ) ;
#42 = COORDINATED_UNIVERSAL_TIME_OFFSET ( 1, 0, .AHEAD. ) ;
#43 = PERSON_AND_ORGANIZATION ( #246, #210 ) ;
#44 = PRODUCT_DEFINITION_SHAPE ( 'NONE', 'NONE',  #67 ) ;
#45 = DIRECTION ( 'NONE',  ( 1.000000000000000000, 0.000000000000000000, 0.000000000000000000 ) ) ;
#46 = DIRECTION ( 'NONE',  ( -0.000000000000000000, -0.000000000000000000, -1.000000000000000000 ) ) ;
#47 = CARTESIAN_POINT ( 'NONE',  ( 4.000000000000000000, 4.898587196589412829E-16, 3.000000000000000000 ) ) ;
#48 = EDGE_CURVE ( 'NONE', #242, #28, #226, .T. ) ;
#49 = ORIENTED_EDGE ( 'NONE', *, *, #147, .F. ) ;
#50 = AXIS2_PLACEMENT_3D ( 'NONE', #252, #208, #72 ) ;
#51 = DIRECTION ( 'NONE',  ( 0.000000000000000000, 0.000000000000000000, 1.000000000000000000 ) ) ;
#52 = APPROVAL ( #79, 'NEURÈENÝ' ) ;
#53 = PLANE ( 'NONE',  #250 ) ;
#54 = APPROVAL_PERSON_ORGANIZATION ( #43, #39, #153 ) ;
#55 = DIRECTION ( 'NONE',  ( 0.000000000000000000, 0.000000000000000000, 1.000000000000000000 ) ) ;
#56 =( NAMED_UNIT ( * ) SI_UNIT ( $, .STERADIAN. ) SOLID_ANGLE_UNIT ( ) );
#57 = DIRECTION ( 'NONE',  ( 1.000000000000000000, 0.000000000000000000, 0.000000000000000000 ) ) ;
#58 = PERSON_AND_ORGANIZATION_ROLE ( 'creator' ) ;
#59 = AXIS2_PLACEMENT_3D ( 'NONE', #83, #141, #161 ) ;
#60 = DATE_TIME_ROLE ( 'creation_date' ) ;
#61 = LOCAL_TIME ( 14, 27, 55.00000000000000000, #117 ) ;
#62 = PERSON_AND_ORGANIZATION ( #246, #210 ) ;
#63 = FACE_OUTER_BOUND ( 'NONE', #192, .T. ) ;
#64 = VECTOR ( 'NONE', #162, 1000.000000000000000 ) ;
#65 = DIRECTION ( 'NONE',  ( 0.000000000000000000, 0.000000000000000000, 1.000000000000000000 ) ) ;
#66 = ORIENTED_EDGE ( 'NONE', *, *, #186, .F. ) ;
#67 = PRODUCT_DEFINITION ( 'NEZNÁMÝ', '', #25, #84 ) ;
#68 = CARTESIAN_POINT ( 'NONE',  ( 2.250000000000000000, 2.755455298081544285E-16, 3.000000000000000000 ) ) ;
#69 = CARTESIAN_POINT ( 'NONE',  ( 0.000000000000000000, 0.000000000000000000, 250.0000000000000000 ) ) ;
#70 = VECTOR ( 'NONE', #17, 1000.000000000000000 ) ;
#71 = CIRCLE ( 'NONE', #209, 4.000000000000000000 ) ;
#72 = DIRECTION ( 'NONE',  ( -1.000000000000000000, 0.000000000000000000, 0.000000000000000000 ) ) ;
#73 = DIRECTION ( 'NONE',  ( -0.000000000000000000, -0.000000000000000000, -1.000000000000000000 ) ) ;
#74 = DIRECTION ( 'NONE',  ( 1.000000000000000000, 0.000000000000000000, 0.000000000000000000 ) ) ;
#75 = AXIS2_PLACEMENT_3D ( 'NONE', #148, #202, #180 ) ;
#76 = DIRECTION ( 'NONE',  ( 0.000000000000000000, 0.000000000000000000, 1.000000000000000000 ) ) ;
#77 = DIRECTION ( 'NONE',  ( -0.000000000000000000, -0.000000000000000000, -1.000000000000000000 ) ) ;
#78 = APPROVAL_ROLE ( '' ) ;
#79 = APPROVAL_STATUS ( 'not_yet_approved' ) ;
#80 = VERTEX_POINT ( 'NONE', #245 ) ;
#81 = CC_DESIGN_PERSON_AND_ORGANIZATION_ASSIGNMENT ( #240, #93, ( #191 ) ) ;
#82 = SHAPE_DEFINITION_REPRESENTATION ( #44, #139 ) ;
#83 = CARTESIAN_POINT ( 'NONE',  ( 0.000000000000000000, 0.000000000000000000, 3.000000000000000000 ) ) ;
#84 = DESIGN_CONTEXT ( 'detailed design', #229, 'design' ) ;
#85 = PLANE ( 'NONE',  #59 ) ;
#86 = LOCAL_TIME ( 14, 27, 55.00000000000000000, #10 ) ;
#87 = DIRECTION ( 'NONE',  ( 1.000000000000000000, 0.000000000000000000, 0.000000000000000000 ) ) ;
#88 = LINE ( 'NONE', #140, #64 ) ;
#89 = DIRECTION ( 'NONE',  ( -0.000000000000000000, -0.000000000000000000, -1.000000000000000000 ) ) ;
#90 = ADVANCED_FACE ( 'NONE', ( #63 ), #176, .T. ) ;
#91 = VECTOR ( 'NONE', #89, 1000.000000000000000 ) ;
#92 = CARTESIAN_POINT ( 'NONE',  ( 0.000000000000000000, 0.000000000000000000, 3.000000000000000000 ) ) ;
#93 = PERSON_AND_ORGANIZATION_ROLE ( 'design_owner' ) ;
#94 = CC_DESIGN_DATE_AND_TIME_ASSIGNMENT ( #237, #60, ( #67 ) ) ;
#95 = VERTEX_POINT ( 'NONE', #12 ) ;
#96 = ORIENTED_EDGE ( 'NONE', *, *, #137, .F. ) ;
#97 = CIRCLE ( 'NONE', #197, 2.250000000000000000 ) ;
#98 = ORIENTED_EDGE ( 'NONE', *, *, #137, .T. ) ;
#99 = FACE_BOUND ( 'NONE', #211, .T. ) ;
#100 = CARTESIAN_POINT ( 'NONE',  ( 0.000000000000000000, 0.000000000000000000, 0.000000000000000000 ) ) ;
#101 = AXIS2_PLACEMENT_3D ( 'NONE', #92, #77, #16 ) ;
#102 = ORIENTED_EDGE ( 'NONE', *, *, #205, .T. ) ;
#103 = FACE_OUTER_BOUND ( 'NONE', #216, .T. ) ;
#104 = FACE_OUTER_BOUND ( 'NONE', #223, .T. ) ;
#105 = EDGE_CURVE ( 'NONE', #28, #242, #35, .T. ) ;
#106 = CARTESIAN_POINT ( 'NONE',  ( 0.000000000000000000, 0.000000000000000000, 250.0000000000000000 ) ) ;
#107 = CYLINDRICAL_SURFACE ( 'NONE', #101, 4.000000000000000000 ) ;
#108 = AXIS2_PLACEMENT_3D ( 'NONE', #143, #243, #159 ) ;
#109 = CYLINDRICAL_SURFACE ( 'NONE', #198, 4.000000000000000000 ) ;
#110 = EDGE_CURVE ( 'NONE', #80, #242, #193, .T. ) ;
#111 = PERSON_AND_ORGANIZATION ( #246, #210 ) ;
#112 = EDGE_LOOP ( 'NONE', ( #26, #14 ) ) ;
#113 = CALENDAR_DATE ( 2023, 13, 2 ) ;
#114 = APPROVAL_STATUS ( 'not_yet_approved' ) ;
#115 = CC_DESIGN_APPROVAL ( #190, ( #188 ) ) ;
#116 = DATE_AND_TIME ( #154, #30 ) ;
#117 = COORDINATED_UNIVERSAL_TIME_OFFSET ( 1, 0, .AHEAD. ) ;
#118 = ORIENTED_EDGE ( 'NONE', *, *, #238, .F. ) ;
#119 = VERTEX_POINT ( 'NONE', #27 ) ;
#120 = VERTEX_POINT ( 'NONE', #68 ) ;
#121 = APPROVAL_ROLE ( '' ) ;
#122 = ORIENTED_EDGE ( 'NONE', *, *, #132, .T. ) ;
#123 = APPROVAL_STATUS ( 'not_yet_approved' ) ;
#124 = EDGE_CURVE ( 'NONE', #119, #120, #88, .T. ) ;
#125 = ORIENTED_EDGE ( 'NONE', *, *, #147, .T. ) ;
#126 = CC_DESIGN_APPROVAL ( #52, ( #25 ) ) ;
#127 = ORIENTED_EDGE ( 'NONE', *, *, #156, .F. ) ;
#128 = CARTESIAN_POINT ( 'NONE',  ( -2.250000000000000000, 0.000000000000000000, 250.0000000000000000 ) ) ;
#129 = APPLICATION_PROTOCOL_DEFINITION ( 'international standard', 'config_control_design', 1994, #194 ) ;
#130 = CARTESIAN_POINT ( 'NONE',  ( 0.000000000000000000, 0.000000000000000000, 250.0000000000000000 ) ) ;
#131 = FACE_OUTER_BOUND ( 'NONE', #199, .T. ) ;
#132 = EDGE_CURVE ( 'NONE', #120, #33, #1, .T. ) ;
#133 = ORIENTED_EDGE ( 'NONE', *, *, #205, .F. ) ;
#134 = PERSON_AND_ORGANIZATION ( #246, #210 ) ;
#135 = APPLICATION_PROTOCOL_DEFINITION ( 'international standard', 'config_control_design', 1994, #229 ) ;
#136 = ADVANCED_FACE ( 'NONE', ( #99, #247 ), #85, .T. ) ;
#137 = EDGE_CURVE ( 'NONE', #95, #80, #71, .T. ) ;
#138 = CARTESIAN_POINT ( 'NONE',  ( 0.000000000000000000, 0.000000000000000000, 0.000000000000000000 ) ) ;
#139 = ADVANCED_BREP_SHAPE_REPRESENTATION ( 'e731', ( #200, #219 ), #150 ) ;
#140 = CARTESIAN_POINT ( 'NONE',  ( 2.250000000000000000, 2.755455298081544285E-16, 250.0000000000000000 ) ) ;
#141 = DIRECTION ( 'NONE',  ( 0.000000000000000000, 0.000000000000000000, 1.000000000000000000 ) ) ;
#142 = CARTESIAN_POINT ( 'NONE',  ( 0.000000000000000000, 0.000000000000000000, 3.000000000000000000 ) ) ;
#143 = CARTESIAN_POINT ( 'NONE',  ( 0.000000000000000000, 0.000000000000000000, 250.0000000000000000 ) ) ;
#144 =( LENGTH_UNIT ( ) NAMED_UNIT ( * ) SI_UNIT ( .MILLI., .METRE. ) );
#145 = MECHANICAL_CONTEXT ( 'NONE', #194, 'mechanical' ) ;
#146 = CIRCLE ( 'NONE', #75, 2.250000000000000000 ) ;
#147 = EDGE_CURVE ( 'NONE', #119, #41, #97, .T. ) ;
#148 = CARTESIAN_POINT ( 'NONE',  ( 0.000000000000000000, 0.000000000000000000, 3.000000000000000000 ) ) ;
#149 = PERSON_AND_ORGANIZATION ( #246, #210 ) ;
#150 =( GEOMETRIC_REPRESENTATION_CONTEXT ( 3 ) GLOBAL_UNCERTAINTY_ASSIGNED_CONTEXT ( ( #34 ) ) GLOBAL_UNIT_ASSIGNED_CONTEXT ( ( #144, #228, #56 ) ) REPRESENTATION_CONTEXT ( 'NONE', 'WORKASPACE' ) );
#151 = CALENDAR_DATE ( 2023, 13, 2 ) ;
#152 = PERSON_AND_ORGANIZATION_ROLE ( 'creator' ) ;
#153 = APPROVAL_ROLE ( '' ) ;
#154 = CALENDAR_DATE ( 2023, 13, 2 ) ;
#155 = ORIENTED_EDGE ( 'NONE', *, *, #110, .T. ) ;
#156 = EDGE_CURVE ( 'NONE', #41, #33, #203, .T. ) ;
#157 = DATE_AND_TIME ( #222, #86 ) ;
#158 = DIRECTION ( 'NONE',  ( 0.000000000000000000, 0.000000000000000000, 1.000000000000000000 ) ) ;
#159 = DIRECTION ( 'NONE',  ( 1.000000000000000000, 0.000000000000000000, -0.000000000000000000 ) ) ;
#160 = CARTESIAN_POINT ( 'NONE',  ( -2.250000000000000000, 0.000000000000000000, 250.0000000000000000 ) ) ;
#161 = DIRECTION ( 'NONE',  ( 1.000000000000000000, 0.000000000000000000, -0.000000000000000000 ) ) ;
#162 = DIRECTION ( 'NONE',  ( -0.000000000000000000, -0.000000000000000000, -1.000000000000000000 ) ) ;
#163 = CARTESIAN_POINT ( 'NONE',  ( 0.000000000000000000, 0.000000000000000000, 3.000000000000000000 ) ) ;
#164 = CC_DESIGN_DATE_AND_TIME_ASSIGNMENT ( #170, #234, ( #188 ) ) ;
#165 = DIRECTION ( 'NONE',  ( 0.000000000000000000, 0.000000000000000000, 1.000000000000000000 ) ) ;
#166 = AXIS2_PLACEMENT_3D ( 'NONE', #249, #51, #87 ) ;
#167 = FACE_OUTER_BOUND ( 'NONE', #201, .T. ) ;
#168 = ADVANCED_FACE ( 'NONE', ( #255 ), #53, .F. ) ;
#169 = LOCAL_TIME ( 14, 27, 55.00000000000000000, #2 ) ;
#170 = DATE_AND_TIME ( #18, #61 ) ;
#171 = LOCAL_TIME ( 14, 27, 55.00000000000000000, #42 ) ;
#172 = CC_DESIGN_PERSON_AND_ORGANIZATION_ASSIGNMENT ( #111, #152, ( #67 ) ) ;
#173 = ORIENTED_EDGE ( 'NONE', *, *, #105, .T. ) ;
#174 = DIRECTION ( 'NONE',  ( 1.000000000000000000, 0.000000000000000000, 0.000000000000000000 ) ) ;
#175 = ORIENTED_EDGE ( 'NONE', *, *, #132, .F. ) ;
#176 = PLANE ( 'NONE',  #108 ) ;
#177 = CYLINDRICAL_SURFACE ( 'NONE', #207, 2.250000000000000000 ) ;
#178 = ORIENTED_EDGE ( 'NONE', *, *, #156, .T. ) ;
#179 = ADVANCED_FACE ( 'NONE', ( #167 ), #107, .T. ) ;
#180 = DIRECTION ( 'NONE',  ( 1.000000000000000000, 0.000000000000000000, 0.000000000000000000 ) ) ;
#181 = LINE ( 'NONE', #182, #91 ) ;
#182 = CARTESIAN_POINT ( 'NONE',  ( -4.000000000000000000, 0.000000000000000000, 3.000000000000000000 ) ) ;
#183 = CARTESIAN_POINT ( 'NONE',  ( 0.000000000000000000, 0.000000000000000000, 3.000000000000000000 ) ) ;
#184 = PERSON_AND_ORGANIZATION ( #246, #210 ) ;
#185 = ORIENTED_EDGE ( 'NONE', *, *, #221, .T. ) ;
#186 = EDGE_CURVE ( 'NONE', #33, #120, #146, .T. ) ;
#187 = PERSON_AND_ORGANIZATION_ROLE ( 'design_supplier' ) ;
#188 = SECURITY_CLASSIFICATION ( '', '', #20 ) ;
#189 = PERSON_AND_ORGANIZATION_ROLE ( 'classification_officer' ) ;
#190 = APPROVAL ( #123, 'NEURÈENÝ' ) ;
#191 = PRODUCT ( 'e731', 'e731', '', ( #145 ) ) ;
#192 = EDGE_LOOP ( 'NONE', ( #185, #125 ) ) ;
#193 = LINE ( 'NONE', #47, #29 ) ;
#194 = APPLICATION_CONTEXT ( 'configuration controlled 3d designs of mechanical parts and assemblies' ) ;
#195 = CARTESIAN_POINT ( 'NONE',  ( -4.000000000000000000, 0.000000000000000000, 0.000000000000000000 ) ) ;
#196 = DIRECTION ( 'NONE',  ( -1.000000000000000000, 0.000000000000000000, 0.000000000000000000 ) ) ;
#197 = AXIS2_PLACEMENT_3D ( 'NONE', #130, #251, #204 ) ;
#198 = AXIS2_PLACEMENT_3D ( 'NONE', #183, #73, #232 ) ;
#199 = EDGE_LOOP ( 'NONE', ( #49, #236, #122, #127 ) ) ;
#200 = MANIFOLD_SOLID_BREP ( 'Pøidat vysunutím3', #224 ) ;
#201 = EDGE_LOOP ( 'NONE', ( #133, #155, #8, #118 ) ) ;
#202 = DIRECTION ( 'NONE',  ( 0.000000000000000000, 0.000000000000000000, 1.000000000000000000 ) ) ;
#203 = LINE ( 'NONE', #128, #70 ) ;
#204 = DIRECTION ( 'NONE',  ( 1.000000000000000000, 0.000000000000000000, 0.000000000000000000 ) ) ;
#205 = EDGE_CURVE ( 'NONE', #80, #95, #215, .T. ) ;
#206 = CARTESIAN_POINT ( 'NONE',  ( 0.000000000000000000, 0.000000000000000000, 0.000000000000000000 ) ) ;
#207 = AXIS2_PLACEMENT_3D ( 'NONE', #69, #9, #196 ) ;
#208 = DIRECTION ( 'NONE',  ( -0.000000000000000000, -0.000000000000000000, -1.000000000000000000 ) ) ;
#209 = AXIS2_PLACEMENT_3D ( 'NONE', #142, #65, #220 ) ;
#210 = ORGANIZATION ( 'NEURÈENÝ', 'NEURÈENÝ', '' ) ;
#211 = EDGE_LOOP ( 'NONE', ( #66, #175 ) ) ;
#212 = CC_DESIGN_PERSON_AND_ORGANIZATION_ASSIGNMENT ( #184, #189, ( #188 ) ) ;
#213 = APPROVAL_DATE_TIME ( #116, #52 ) ;
#214 = AXIS2_PLACEMENT_3D ( 'NONE', #106, #55, #57 ) ;
#215 = CIRCLE ( 'NONE', #244, 4.000000000000000000 ) ;
#216 = EDGE_LOOP ( 'NONE', ( #241, #32, #178, #6 ) ) ;
#217 = AXIS2_PLACEMENT_3D ( 'NONE', #100, #158, #45 ) ;
#218 = APPROVAL_DATE_TIME ( #157, #190 ) ;
#219 = AXIS2_PLACEMENT_3D ( 'NONE', #206, #253, #74 ) ;
#220 = DIRECTION ( 'NONE',  ( 1.000000000000000000, 0.000000000000000000, 0.000000000000000000 ) ) ;
#221 = EDGE_CURVE ( 'NONE', #41, #119, #254, .T. ) ;
#222 = CALENDAR_DATE ( 2023, 13, 2 ) ;
#223 = EDGE_LOOP ( 'NONE', ( #19, #96, #23, #173 ) ) ;
#224 = CLOSED_SHELL ( 'NONE', ( #225, #179, #248, #136, #168, #31, #90 ) ) ;
#225 = ADVANCED_FACE ( 'NONE', ( #131 ), #36, .T. ) ;
#226 = CIRCLE ( 'NONE', #217, 4.000000000000000000 ) ;
#227 = DIRECTION ( 'NONE',  ( 0.000000000000000000, 0.000000000000000000, 1.000000000000000000 ) ) ;
#228 =( NAMED_UNIT ( * ) PLANE_ANGLE_UNIT ( ) SI_UNIT ( $, .RADIAN. ) );
#229 = APPLICATION_CONTEXT ( 'configuration controlled 3d designs of mechanical parts and assemblies' ) ;
#230 = CC_DESIGN_APPROVAL ( #39, ( #67 ) ) ;
#231 = PRODUCT_RELATED_PRODUCT_CATEGORY ( 'detail', '', ( #191 ) ) ;
#232 = DIRECTION ( 'NONE',  ( -1.000000000000000000, 0.000000000000000000, 0.000000000000000000 ) ) ;
#233 = DIRECTION ( 'NONE',  ( 1.000000000000000000, 0.000000000000000000, 0.000000000000000000 ) ) ;
#234 = DATE_TIME_ROLE ( 'classification_date' ) ;
#235 = COORDINATED_UNIVERSAL_TIME_OFFSET ( 1, 0, .AHEAD. ) ;
#236 = ORIENTED_EDGE ( 'NONE', *, *, #124, .T. ) ;
#237 = DATE_AND_TIME ( #151, #171 ) ;
#238 = EDGE_CURVE ( 'NONE', #95, #28, #181, .T. ) ;
#239 = CC_DESIGN_SECURITY_CLASSIFICATION ( #188, ( #25 ) ) ;
#240 = PERSON_AND_ORGANIZATION ( #246, #210 ) ;
#241 = ORIENTED_EDGE ( 'NONE', *, *, #124, .F. ) ;
#242 = VERTEX_POINT ( 'NONE', #40 ) ;
#243 = DIRECTION ( 'NONE',  ( 0.000000000000000000, 0.000000000000000000, 1.000000000000000000 ) ) ;
#244 = AXIS2_PLACEMENT_3D ( 'NONE', #163, #165, #233 ) ;
#245 = CARTESIAN_POINT ( 'NONE',  ( 4.000000000000000000, 4.898587196589412829E-16, 3.000000000000000000 ) ) ;
#246 = PERSON ( 'NEURÈENÝ', 'NEURÈENÝ', 'NEURÈENÝ', ('NEURÈENÝ'), ('NEURÈENÝ'), ('NEURÈENÝ') ) ;
#247 = FACE_OUTER_BOUND ( 'NONE', #24, .T. ) ;
#248 = ADVANCED_FACE ( 'NONE', ( #104 ), #109, .T. ) ;
#249 = CARTESIAN_POINT ( 'NONE',  ( 0.000000000000000000, 0.000000000000000000, 3.000000000000000000 ) ) ;
#250 = AXIS2_PLACEMENT_3D ( 'NONE', #38, #76, #37 ) ;
#251 = DIRECTION ( 'NONE',  ( 0.000000000000000000, 0.000000000000000000, 1.000000000000000000 ) ) ;
#252 = CARTESIAN_POINT ( 'NONE',  ( 0.000000000000000000, 0.000000000000000000, 250.0000000000000000 ) ) ;
#253 = DIRECTION ( 'NONE',  ( 0.000000000000000000, 0.000000000000000000, 1.000000000000000000 ) ) ;
#254 = CIRCLE ( 'NONE', #214, 2.250000000000000000 ) ;
#255 = FACE_OUTER_BOUND ( 'NONE', #112, .T. ) ;
ENDSEC;
END-ISO-10303-21;
