ISO-10303-21;
HEADER;
FILE_DESCRIPTION (( 'STEP AP203' ),
    '1' );
FILE_NAME ('74fb.STEP',
    '2022-06-20T09:57:10',
    ( '' ),
    ( '' ),
    'SwSTEP 2.0',
    'SolidWorks 2019',
    '' );
FILE_SCHEMA (( 'CONFIG_CONTROL_DESIGN' ));
ENDSEC;

DATA;
#1 = FACE_OUTER_BOUND ( 'NONE', #152, .T. ) ;
#2 = AXIS2_PLACEMENT_3D ( 'NONE', #260, #156, #234 ) ;
#3 = LOCAL_TIME ( 11, 57, 10.00000000000000000, #126 ) ;
#4 = CARTESIAN_POINT ( 'NONE',  ( 0.000000000000000000, 0.000000000000000000, 105.0000000000000142 ) ) ;
#5 = DIRECTION ( 'NONE',  ( 1.000000000000000000, 0.000000000000000000, -0.000000000000000000 ) ) ;
#6 = PRODUCT_DEFINITION ( 'NEZNÁMÝ', '', #223, #304 ) ;
#7 = FACE_OUTER_BOUND ( 'NONE', #287, .T. ) ;
#8 = CARTESIAN_POINT ( 'NONE',  ( 6.000000000000000888, 7.347880794884120722E-16, 5.000000000000000000 ) ) ;
#9 = PERSON_AND_ORGANIZATION_ROLE ( 'creator' ) ;
#10 = ORIENTED_EDGE ( 'NONE', *, *, #105, .F. ) ;
#11 = PERSON_AND_ORGANIZATION ( #293, #82 ) ;
#12 = CC_DESIGN_PERSON_AND_ORGANIZATION_ASSIGNMENT ( #40, #227, ( #223 ) ) ;
#13 = MECHANICAL_CONTEXT ( 'NONE', #305, 'mechanical' ) ;
#14 = AXIS2_PLACEMENT_3D ( 'NONE', #283, #210, #142 ) ;
#15 = SECURITY_CLASSIFICATION_LEVEL ( 'unclassified' ) ;
#16 = ORIENTED_EDGE ( 'NONE', *, *, #163, .F. ) ;
#17 = PRODUCT ( '74fb', '74fb', '', ( #13 ) ) ;
#18 = DATE_AND_TIME ( #199, #166 ) ;
#19 = ORIENTED_EDGE ( 'NONE', *, *, #29, .T. ) ;
#20 = CYLINDRICAL_SURFACE ( 'NONE', #165, 3.100000000000000089 ) ;
#21 = AXIS2_PLACEMENT_3D ( 'NONE', #298, #46, #233 ) ;
#22 = DIRECTION ( 'NONE',  ( -0.000000000000000000, -0.000000000000000000, -1.000000000000000000 ) ) ;
#23 = CARTESIAN_POINT ( 'NONE',  ( 3.299999999999999822, 0.000000000000000000, 4.999999999999998224 ) ) ;
#24 = CARTESIAN_POINT ( 'NONE',  ( 0.000000000000000000, 0.000000000000000000, 105.0000000000000142 ) ) ;
#25 = DIRECTION ( 'NONE',  ( 1.000000000000000000, 0.000000000000000000, 0.000000000000000000 ) ) ;
#26 = FACE_OUTER_BOUND ( 'NONE', #109, .T. ) ;
#27 = CC_DESIGN_SECURITY_CLASSIFICATION ( #74, ( #223 ) ) ;
#28 = CARTESIAN_POINT ( 'NONE',  ( -3.100000000000000089, 0.000000000000000000, 5.199999999999996625 ) ) ;
#29 = EDGE_CURVE ( 'NONE', #221, #243, #85, .T. ) ;
#30 = DIRECTION ( 'NONE',  ( -0.000000000000000000, -0.000000000000000000, -1.000000000000000000 ) ) ;
#31 = CYLINDRICAL_SURFACE ( 'NONE', #224, 3.100000000000000089 ) ;
#32 = CC_DESIGN_APPROVAL ( #145, ( #74 ) ) ;
#33 = ORIENTED_EDGE ( 'NONE', *, *, #58, .T. ) ;
#34 = ADVANCED_FACE ( 'NONE', ( #253, #93 ), #110, .T. ) ;
#35 = DIRECTION ( 'NONE',  ( 0.000000000000000000, 0.000000000000000000, 1.000000000000000000 ) ) ;
#36 = COORDINATED_UNIVERSAL_TIME_OFFSET ( 1, 0, .AHEAD. ) ;
#37 = EDGE_LOOP ( 'NONE', ( #174, #57, #289, #252 ) ) ;
#38 = APPROVAL_STATUS ( 'not_yet_approved' ) ;
#39 = CIRCLE ( 'NONE', #143, 3.299999999999999822 ) ;
#40 = PERSON_AND_ORGANIZATION ( #293, #82 ) ;
#41 = DIRECTION ( 'NONE',  ( -0.000000000000000000, -0.000000000000000000, -1.000000000000000000 ) ) ;
#42 = DIRECTION ( 'NONE',  ( 1.000000000000000000, 0.000000000000000000, 0.000000000000000000 ) ) ;
#43 = AXIS2_PLACEMENT_3D ( 'NONE', #205, #157, #254 ) ;
#44 = AXIS2_PLACEMENT_3D ( 'NONE', #162, #50, #100 ) ;
#45 = CC_DESIGN_DATE_AND_TIME_ASSIGNMENT ( #18, #78, ( #74 ) ) ;
#46 = DIRECTION ( 'NONE',  ( 0.000000000000000000, 0.000000000000000000, 1.000000000000000000 ) ) ;
#47 = CYLINDRICAL_SURFACE ( 'NONE', #285, 6.000000000000000888 ) ;
#48 = CARTESIAN_POINT ( 'NONE',  ( -3.299999999999999822, 4.041334437186265510E-16, 5.199999999999996625 ) ) ;
#49 = FACE_OUTER_BOUND ( 'NONE', #247, .T. ) ;
#50 = DIRECTION ( 'NONE',  ( 0.000000000000000000, -1.000000000000000000, 0.000000000000000000 ) ) ;
#51 = CC_DESIGN_DATE_AND_TIME_ASSIGNMENT ( #218, #251, ( #6 ) ) ;
#52 = APPROVAL_PERSON_ORGANIZATION ( #175, #188, #108 ) ;
#53 = DIRECTION ( 'NONE',  ( 1.000000000000000000, 0.000000000000000000, -0.000000000000000000 ) ) ;
#54 = DIRECTION ( 'NONE',  ( 0.000000000000000000, 0.000000000000000000, 1.000000000000000000 ) ) ;
#55 = DIRECTION ( 'NONE',  ( 1.000000000000000000, 0.000000000000000000, 0.000000000000000000 ) ) ;
#56 = AXIS2_PLACEMENT_3D ( 'NONE', #263, #54, #5 ) ;
#57 = ORIENTED_EDGE ( 'NONE', *, *, #294, .T. ) ;
#58 = EDGE_CURVE ( 'NONE', #221, #269, #235, .T. ) ;
#59 = PERSON_AND_ORGANIZATION ( #293, #82 ) ;
#60 = CIRCLE ( 'NONE', #101, 3.100000000000000089 ) ;
#61 = ADVANCED_BREP_SHAPE_REPRESENTATION ( '74fb', ( #186, #215 ), #206 ) ;
#62 = PRODUCT_DEFINITION_SHAPE ( 'NONE', 'NONE',  #6 ) ;
#63 = CARTESIAN_POINT ( 'NONE',  ( 0.000000000000000000, 0.000000000000000000, 0.000000000000000000 ) ) ;
#64 = CC_DESIGN_PERSON_AND_ORGANIZATION_ASSIGNMENT ( #106, #9, ( #6 ) ) ;
#65 = ORIENTED_EDGE ( 'NONE', *, *, #307, .F. ) ;
#66 = AXIS2_PLACEMENT_3D ( 'NONE', #63, #300, #42 ) ;
#67 = CARTESIAN_POINT ( 'NONE',  ( 0.000000000000000000, 0.000000000000000000, 5.000000000000000000 ) ) ;
#68 = EDGE_LOOP ( 'NONE', ( #137, #295 ) ) ;
#69 = VECTOR ( 'NONE', #41, 1000.000000000000000 ) ;
#70 = DIRECTION ( 'NONE',  ( -0.000000000000000000, -0.000000000000000000, -1.000000000000000000 ) ) ;
#71 = DIRECTION ( 'NONE',  ( -1.000000000000000000, 0.000000000000000000, 0.000000000000000000 ) ) ;
#72 = CARTESIAN_POINT ( 'NONE',  ( -3.100000000000000089, 0.000000000000000000, 105.0000000000000142 ) ) ;
#73 = CIRCLE ( 'NONE', #43, 3.100000000000000089 ) ;
#74 = SECURITY_CLASSIFICATION ( '', '', #15 ) ;
#75 = CYLINDRICAL_SURFACE ( 'NONE', #256, 6.000000000000000888 ) ;
#76 = CALENDAR_DATE ( 2022, 20, 6 ) ;
#77 = ADVANCED_FACE ( 'NONE', ( #183 ), #47, .T. ) ;
#78 = DATE_TIME_ROLE ( 'classification_date' ) ;
#79 = ORIENTED_EDGE ( 'NONE', *, *, #238, .T. ) ;
#80 = CIRCLE ( 'NONE', #21, 6.000000000000000888 ) ;
#81 = DATE_AND_TIME ( #168, #116 ) ;
#82 = ORGANIZATION ( 'NEURÈENÝ', 'NEURÈENÝ', '' ) ;
#83 = ORIENTED_EDGE ( 'NONE', *, *, #246, .T. ) ;
#84 = ORIENTED_EDGE ( 'NONE', *, *, #307, .T. ) ;
#85 = CIRCLE ( 'NONE', #274, 0.2000000000000000944 ) ;
#86 = ORIENTED_EDGE ( 'NONE', *, *, #294, .F. ) ;
#87 = DIRECTION ( 'NONE',  ( -0.000000000000000000, -0.000000000000000000, -1.000000000000000000 ) ) ;
#88 = EDGE_CURVE ( 'NONE', #147, #176, #279, .T. ) ;
#89 = ORIENTED_EDGE ( 'NONE', *, *, #246, .F. ) ;
#90 = CARTESIAN_POINT ( 'NONE',  ( 0.000000000000000000, 0.000000000000000000, 105.0000000000000142 ) ) ;
#91 = VECTOR ( 'NONE', #118, 1000.000000000000000 ) ;
#92 = PRODUCT_RELATED_PRODUCT_CATEGORY ( 'detail', '', ( #17 ) ) ;
#93 = FACE_OUTER_BOUND ( 'NONE', #68, .T. ) ;
#94 = DIRECTION ( 'NONE',  ( 1.000000000000000000, 0.000000000000000000, 0.000000000000000000 ) ) ;
#95 = LINE ( 'NONE', #72, #296 ) ;
#96 = CIRCLE ( 'NONE', #44, 0.1999999999999996503 ) ;
#97 =( NAMED_UNIT ( * ) PLANE_ANGLE_UNIT ( ) SI_UNIT ( $, .RADIAN. ) );
#98 = EDGE_CURVE ( 'NONE', #178, #278, #73, .T. ) ;
#99 = CARTESIAN_POINT ( 'NONE',  ( 3.100000000000000089, 3.796405077356794918E-16, 5.199999999999996625 ) ) ;
#100 = DIRECTION ( 'NONE',  ( 0.000000000000000000, 0.000000000000000000, -1.000000000000000000 ) ) ;
#101 = AXIS2_PLACEMENT_3D ( 'NONE', #90, #180, #232 ) ;
#102 = PERSON_AND_ORGANIZATION_ROLE ( 'classification_officer' ) ;
#103 = ORIENTED_EDGE ( 'NONE', *, *, #140, .T. ) ;
#104 = DATE_AND_TIME ( #216, #190 ) ;
#105 = EDGE_CURVE ( 'NONE', #278, #178, #60, .T. ) ;
#106 = PERSON_AND_ORGANIZATION ( #293, #82 ) ;
#107 = ORIENTED_EDGE ( 'NONE', *, *, #105, .T. ) ;
#108 = APPROVAL_ROLE ( '' ) ;
#109 = EDGE_LOOP ( 'NONE', ( #273, #19, #291, #65 ) ) ;
#110 = PLANE ( 'NONE',  #230 ) ;
#111 = CARTESIAN_POINT ( 'NONE',  ( 0.000000000000000000, 0.000000000000000000, 5.199999999999996625 ) ) ;
#112 = CARTESIAN_POINT ( 'NONE',  ( 3.100000000000000089, 3.796405077356794918E-16, 105.0000000000000142 ) ) ;
#113 = EDGE_CURVE ( 'NONE', #169, #176, #297, .T. ) ;
#114 = DIRECTION ( 'NONE',  ( -0.000000000000000000, -0.000000000000000000, -1.000000000000000000 ) ) ;
#115 = UNCERTAINTY_MEASURE_WITH_UNIT (LENGTH_MEASURE( 1.000000000000000082E-05 ), #119, 'distance_accuracy_value', 'NONE');
#116 = LOCAL_TIME ( 11, 57, 10.00000000000000000, #191 ) ;
#117 = DIRECTION ( 'NONE',  ( 0.000000000000000000, 0.000000000000000000, 1.000000000000000000 ) ) ;
#118 = DIRECTION ( 'NONE',  ( -0.000000000000000000, -0.000000000000000000, -1.000000000000000000 ) ) ;
#119 =( LENGTH_UNIT ( ) NAMED_UNIT ( * ) SI_UNIT ( .MILLI., .METRE. ) );
#120 = AXIS2_PLACEMENT_3D ( 'NONE', #259, #117, #277 ) ;
#121 = FACE_OUTER_BOUND ( 'NONE', #275, .T. ) ;
#122 = CARTESIAN_POINT ( 'NONE',  ( 3.100000000000000089, 3.796405077356794918E-16, 105.0000000000000142 ) ) ;
#123 = PLANE ( 'NONE',  #56 ) ;
#124 = AXIS2_PLACEMENT_3D ( 'NONE', #282, #159, #264 ) ;
#125 = ORIENTED_EDGE ( 'NONE', *, *, #204, .F. ) ;
#126 = COORDINATED_UNIVERSAL_TIME_OFFSET ( 1, 0, .AHEAD. ) ;
#127 = ORIENTED_EDGE ( 'NONE', *, *, #211, .F. ) ;
#128 = PERSON_AND_ORGANIZATION_ROLE ( 'design_owner' ) ;
#129 = ORIENTED_EDGE ( 'NONE', *, *, #88, .F. ) ;
#130 = CC_DESIGN_APPROVAL ( #188, ( #223 ) ) ;
#131 = APPLICATION_CONTEXT ( 'configuration controlled 3d designs of mechanical parts and assemblies' ) ;
#132 = APPROVAL_STATUS ( 'not_yet_approved' ) ;
#133 = ADVANCED_FACE ( 'NONE', ( #229 ), #20, .T. ) ;
#134 = EDGE_LOOP ( 'NONE', ( #125, #83, #271, #200 ) ) ;
#135 = CARTESIAN_POINT ( 'NONE',  ( -6.000000000000000888, 0.000000000000000000, 0.000000000000000000 ) ) ;
#136 = CC_DESIGN_PERSON_AND_ORGANIZATION_ASSIGNMENT ( #272, #102, ( #74 ) ) ;
#137 = ORIENTED_EDGE ( 'NONE', *, *, #211, .T. ) ;
#138 = DIRECTION ( 'NONE',  ( -1.000000000000000000, 0.000000000000000000, 0.000000000000000000 ) ) ;
#139 = DIRECTION ( 'NONE',  ( 0.000000000000000000, 0.000000000000000000, 1.000000000000000000 ) ) ;
#140 = EDGE_CURVE ( 'NONE', #201, #243, #39, .T. ) ;
#141 = DIRECTION ( 'NONE',  ( 1.000000000000000000, 0.000000000000000000, 0.000000000000000000 ) ) ;
#142 = DIRECTION ( 'NONE',  ( 1.000000000000000000, 0.000000000000000000, 0.000000000000000000 ) ) ;
#143 = AXIS2_PLACEMENT_3D ( 'NONE', #158, #87, #25 ) ;
#144 = DIRECTION ( 'NONE',  ( -0.000000000000000000, -0.000000000000000000, -1.000000000000000000 ) ) ;
#145 = APPROVAL ( #132, 'NEURÈENÝ' ) ;
#146 = LINE ( 'NONE', #241, #155 ) ;
#147 = VERTEX_POINT ( 'NONE', #179 ) ;
#148 = AXIS2_PLACEMENT_3D ( 'NONE', #111, #203, #257 ) ;
#149 = APPROVAL_DATE_TIME ( #81, #145 ) ;
#150 = ORIENTED_EDGE ( 'NONE', *, *, #29, .F. ) ;
#151 = APPROVAL_STATUS ( 'not_yet_approved' ) ;
#152 = EDGE_LOOP ( 'NONE', ( #86, #10, #79, #33 ) ) ;
#153 = FACE_OUTER_BOUND ( 'NONE', #292, .T. ) ;
#154 = DIRECTION ( 'NONE',  ( -0.000000000000000000, -0.000000000000000000, -1.000000000000000000 ) ) ;
#155 = VECTOR ( 'NONE', #30, 1000.000000000000000 ) ;
#156 = DIRECTION ( 'NONE',  ( 0.000000000000000000, 0.000000000000000000, 1.000000000000000000 ) ) ;
#157 = DIRECTION ( 'NONE',  ( 0.000000000000000000, 0.000000000000000000, 1.000000000000000000 ) ) ;
#158 = CARTESIAN_POINT ( 'NONE',  ( 0.000000000000000000, 0.000000000000000000, 5.000000000000000000 ) ) ;
#159 = DIRECTION ( 'NONE',  ( 0.000000000000000000, 0.000000000000000000, 1.000000000000000000 ) ) ;
#160 = AXIS2_PLACEMENT_3D ( 'NONE', #4, #262, #53 ) ;
#161 = EDGE_CURVE ( 'NONE', #243, #201, #249, .T. ) ;
#162 = CARTESIAN_POINT ( 'NONE',  ( 3.299999999999999822, 0.000000000000000000, 5.199999999999996625 ) ) ;
#163 = EDGE_CURVE ( 'NONE', #269, #221, #177, .T. ) ;
#164 = CARTESIAN_POINT ( 'NONE',  ( 0.000000000000000000, 0.000000000000000000, 105.0000000000000142 ) ) ;
#165 = AXIS2_PLACEMENT_3D ( 'NONE', #24, #22, #138 ) ;
#166 = LOCAL_TIME ( 11, 57, 10.00000000000000000, #192 ) ;
#167 = PERSON_AND_ORGANIZATION ( #293, #82 ) ;
#168 = CALENDAR_DATE ( 2022, 20, 6 ) ;
#169 = VERTEX_POINT ( 'NONE', #208 ) ;
#170 = ADVANCED_FACE ( 'NONE', ( #153 ), #261, .F. ) ;
#171 = AXIS2_PLACEMENT_3D ( 'NONE', #185, #114, #94 ) ;
#172 = TOROIDAL_SURFACE ( 'NONE', #302, 3.299999999999999822, 0.2000000000000000111 ) ;
#173 = SHAPE_DEFINITION_REPRESENTATION ( #62, #61 ) ;
#174 = ORIENTED_EDGE ( 'NONE', *, *, #98, .F. ) ;
#175 = PERSON_AND_ORGANIZATION ( #293, #82 ) ;
#176 = VERTEX_POINT ( 'NONE', #135 ) ;
#177 = CIRCLE ( 'NONE', #120, 3.100000000000000089 ) ;
#178 = VERTEX_POINT ( 'NONE', #112 ) ;
#179 = CARTESIAN_POINT ( 'NONE',  ( 6.000000000000000888, 7.347880794884120722E-16, 0.000000000000000000 ) ) ;
#180 = DIRECTION ( 'NONE',  ( 0.000000000000000000, 0.000000000000000000, 1.000000000000000000 ) ) ;
#181 = CIRCLE ( 'NONE', #124, 6.000000000000000888 ) ;
#182 = CARTESIAN_POINT ( 'NONE',  ( 0.000000000000000000, 0.000000000000000000, 5.000000000000000000 ) ) ;
#183 = FACE_OUTER_BOUND ( 'NONE', #134, .T. ) ;
#184 = EDGE_CURVE ( 'NONE', #176, #147, #80, .T. ) ;
#185 = CARTESIAN_POINT ( 'NONE',  ( 0.000000000000000000, 0.000000000000000000, 5.000000000000000000 ) ) ;
#186 = MANIFOLD_SOLID_BREP ( 'Zaoblit1', #301 ) ;
#187 = CARTESIAN_POINT ( 'NONE',  ( 0.000000000000000000, 0.000000000000000000, 5.000000000000000000 ) ) ;
#188 = APPROVAL ( #151, 'NEURÈENÝ' ) ;
#189 = CARTESIAN_POINT ( 'NONE',  ( -3.100000000000000089, 0.000000000000000000, 105.0000000000000142 ) ) ;
#190 = LOCAL_TIME ( 11, 57, 10.00000000000000000, #290 ) ;
#191 = COORDINATED_UNIVERSAL_TIME_OFFSET ( 1, 0, .AHEAD. ) ;
#192 = COORDINATED_UNIVERSAL_TIME_OFFSET ( 1, 0, .AHEAD. ) ;
#193 = ORIENTED_EDGE ( 'NONE', *, *, #98, .T. ) ;
#194 = CALENDAR_DATE ( 2022, 20, 6 ) ;
#195 = ORIENTED_EDGE ( 'NONE', *, *, #184, .T. ) ;
#196 = DATE_AND_TIME ( #194, #265 ) ;
#197 = ORIENTED_EDGE ( 'NONE', *, *, #161, .F. ) ;
#198 = APPROVAL ( #38, 'NEURÈENÝ' ) ;
#199 = CALENDAR_DATE ( 2022, 20, 6 ) ;
#200 = ORIENTED_EDGE ( 'NONE', *, *, #113, .F. ) ;
#201 = VERTEX_POINT ( 'NONE', #23 ) ;
#202 = DIRECTION ( 'NONE',  ( 0.000000000000000000, 0.000000000000000000, 1.000000000000000000 ) ) ;
#203 = DIRECTION ( 'NONE',  ( 0.000000000000000000, 0.000000000000000000, 1.000000000000000000 ) ) ;
#204 = EDGE_CURVE ( 'NONE', #217, #169, #255, .T. ) ;
#205 = CARTESIAN_POINT ( 'NONE',  ( 0.000000000000000000, 0.000000000000000000, 105.0000000000000142 ) ) ;
#206 =( GEOMETRIC_REPRESENTATION_CONTEXT ( 3 ) GLOBAL_UNCERTAINTY_ASSIGNED_CONTEXT ( ( #115 ) ) GLOBAL_UNIT_ASSIGNED_CONTEXT ( ( #119, #97, #213 ) ) REPRESENTATION_CONTEXT ( 'NONE', 'WORKASPACE' ) );
#207 = DIRECTION ( 'NONE',  ( 1.000000000000000000, 0.000000000000000000, -0.000000000000000000 ) ) ;
#208 = CARTESIAN_POINT ( 'NONE',  ( -6.000000000000000888, 0.000000000000000000, 5.000000000000000000 ) ) ;
#209 = CARTESIAN_POINT ( 'NONE',  ( -3.299999999999999822, 4.041334437186265510E-16, 4.999999999999998224 ) ) ;
#210 = DIRECTION ( 'NONE',  ( 0.000000000000000000, 0.000000000000000000, 1.000000000000000000 ) ) ;
#211 = EDGE_CURVE ( 'NONE', #169, #217, #181, .T. ) ;
#212 = APPROVAL_PERSON_ORGANIZATION ( #11, #198, #220 ) ;
#213 =( NAMED_UNIT ( * ) SI_UNIT ( $, .STERADIAN. ) SOLID_ANGLE_UNIT ( ) );
#214 = DIRECTION ( 'NONE',  ( -1.000000000000000000, 0.000000000000000000, 0.000000000000000000 ) ) ;
#215 = AXIS2_PLACEMENT_3D ( 'NONE', #270, #35, #55 ) ;
#216 = CALENDAR_DATE ( 2022, 20, 6 ) ;
#217 = VERTEX_POINT ( 'NONE', #8 ) ;
#218 = DATE_AND_TIME ( #76, #3 ) ;
#219 = ORIENTED_EDGE ( 'NONE', *, *, #161, .T. ) ;
#220 = APPROVAL_ROLE ( '' ) ;
#221 = VERTEX_POINT ( 'NONE', #28 ) ;
#222 = ADVANCED_FACE ( 'NONE', ( #49 ), #239, .T. ) ;
#223 = PRODUCT_DEFINITION_FORMATION_WITH_SPECIFIED_SOURCE ( 'LIBOVOLNÝ', '', #17, .NOT_KNOWN. ) ;
#224 = AXIS2_PLACEMENT_3D ( 'NONE', #164, #237, #214 ) ;
#225 = APPROVAL_DATE_TIME ( #196, #188 ) ;
#226 = ORIENTED_EDGE ( 'NONE', *, *, #113, .T. ) ;
#227 = PERSON_AND_ORGANIZATION_ROLE ( 'design_supplier' ) ;
#228 = ORIENTED_EDGE ( 'NONE', *, *, #184, .F. ) ;
#229 = FACE_OUTER_BOUND ( 'NONE', #37, .T. ) ;
#230 = AXIS2_PLACEMENT_3D ( 'NONE', #182, #202, #207 ) ;
#231 = CC_DESIGN_PERSON_AND_ORGANIZATION_ASSIGNMENT ( #267, #128, ( #17 ) ) ;
#232 = DIRECTION ( 'NONE',  ( 1.000000000000000000, 0.000000000000000000, 0.000000000000000000 ) ) ;
#233 = DIRECTION ( 'NONE',  ( 1.000000000000000000, 0.000000000000000000, 0.000000000000000000 ) ) ;
#234 = DIRECTION ( 'NONE',  ( 1.000000000000000000, 0.000000000000000000, 0.000000000000000000 ) ) ;
#235 = CIRCLE ( 'NONE', #2, 3.100000000000000089 ) ;
#236 = LINE ( 'NONE', #122, #91 ) ;
#237 = DIRECTION ( 'NONE',  ( -0.000000000000000000, -0.000000000000000000, -1.000000000000000000 ) ) ;
#238 = EDGE_CURVE ( 'NONE', #278, #221, #95, .T. ) ;
#239 = PLANE ( 'NONE',  #160 ) ;
#240 = CC_DESIGN_APPROVAL ( #198, ( #6 ) ) ;
#241 = CARTESIAN_POINT ( 'NONE',  ( 6.000000000000000888, 7.347880794884120722E-16, 5.000000000000000000 ) ) ;
#242 = CARTESIAN_POINT ( 'NONE',  ( 0.000000000000000000, 0.000000000000000000, 5.199999999999996625 ) ) ;
#243 = VERTEX_POINT ( 'NONE', #209 ) ;
#244 = APPROVAL_DATE_TIME ( #104, #198 ) ;
#245 = EDGE_LOOP ( 'NONE', ( #103, #219 ) ) ;
#246 = EDGE_CURVE ( 'NONE', #217, #147, #146, .T. ) ;
#247 = EDGE_LOOP ( 'NONE', ( #107, #193 ) ) ;
#248 = APPROVAL_ROLE ( '' ) ;
#249 = CIRCLE ( 'NONE', #171, 3.299999999999999822 ) ;
#250 = APPROVAL_PERSON_ORGANIZATION ( #59, #145, #248 ) ;
#251 = DATE_TIME_ROLE ( 'creation_date' ) ;
#252 = ORIENTED_EDGE ( 'NONE', *, *, #238, .F. ) ;
#253 = FACE_BOUND ( 'NONE', #245, .T. ) ;
#254 = DIRECTION ( 'NONE',  ( 1.000000000000000000, 0.000000000000000000, 0.000000000000000000 ) ) ;
#255 = CIRCLE ( 'NONE', #14, 6.000000000000000888 ) ;
#256 = AXIS2_PLACEMENT_3D ( 'NONE', #187, #70, #71 ) ;
#257 = DIRECTION ( 'NONE',  ( 1.000000000000000000, 0.000000000000000000, 0.000000000000000000 ) ) ;
#258 = ADVANCED_FACE ( 'NONE', ( #121 ), #75, .T. ) ;
#259 = CARTESIAN_POINT ( 'NONE',  ( 0.000000000000000000, 0.000000000000000000, 5.199999999999996625 ) ) ;
#260 = CARTESIAN_POINT ( 'NONE',  ( 0.000000000000000000, 0.000000000000000000, 5.199999999999996625 ) ) ;
#261 = TOROIDAL_SURFACE ( 'NONE', #148, 3.299999999999999822, 0.2000000000000000111 ) ;
#262 = DIRECTION ( 'NONE',  ( 0.000000000000000000, 0.000000000000000000, 1.000000000000000000 ) ) ;
#263 = CARTESIAN_POINT ( 'NONE',  ( 0.000000000000000000, 0.000000000000000000, 0.000000000000000000 ) ) ;
#264 = DIRECTION ( 'NONE',  ( 1.000000000000000000, 0.000000000000000000, 0.000000000000000000 ) ) ;
#265 = LOCAL_TIME ( 11, 57, 10.00000000000000000, #36 ) ;
#266 = ADVANCED_FACE ( 'NONE', ( #1 ), #31, .T. ) ;
#267 = PERSON_AND_ORGANIZATION ( #293, #82 ) ;
#268 = APPLICATION_PROTOCOL_DEFINITION ( 'international standard', 'config_control_design', 1994, #131 ) ;
#269 = VERTEX_POINT ( 'NONE', #99 ) ;
#270 = CARTESIAN_POINT ( 'NONE',  ( 0.000000000000000000, 0.000000000000000000, 0.000000000000000000 ) ) ;
#271 = ORIENTED_EDGE ( 'NONE', *, *, #88, .T. ) ;
#272 = PERSON_AND_ORGANIZATION ( #293, #82 ) ;
#273 = ORIENTED_EDGE ( 'NONE', *, *, #58, .F. ) ;
#274 = AXIS2_PLACEMENT_3D ( 'NONE', #48, #303, #280 ) ;
#275 = EDGE_LOOP ( 'NONE', ( #89, #127, #226, #195 ) ) ;
#276 = ADVANCED_FACE ( 'NONE', ( #26 ), #172, .F. ) ;
#277 = DIRECTION ( 'NONE',  ( 1.000000000000000000, 0.000000000000000000, 0.000000000000000000 ) ) ;
#278 = VERTEX_POINT ( 'NONE', #189 ) ;
#279 = CIRCLE ( 'NONE', #66, 6.000000000000000888 ) ;
#280 = DIRECTION ( 'NONE',  ( -1.000000000000000000, 1.224646799147353207E-16, 0.000000000000000000 ) ) ;
#281 = CARTESIAN_POINT ( 'NONE',  ( -6.000000000000000888, 0.000000000000000000, 5.000000000000000000 ) ) ;
#282 = CARTESIAN_POINT ( 'NONE',  ( 0.000000000000000000, 0.000000000000000000, 5.000000000000000000 ) ) ;
#283 = CARTESIAN_POINT ( 'NONE',  ( 0.000000000000000000, 0.000000000000000000, 5.000000000000000000 ) ) ;
#284 = CC_DESIGN_PERSON_AND_ORGANIZATION_ASSIGNMENT ( #167, #288, ( #223 ) ) ;
#285 = AXIS2_PLACEMENT_3D ( 'NONE', #67, #154, #306 ) ;
#286 = APPLICATION_PROTOCOL_DEFINITION ( 'international standard', 'config_control_design', 1994, #305 ) ;
#287 = EDGE_LOOP ( 'NONE', ( #228, #129 ) ) ;
#288 = PERSON_AND_ORGANIZATION_ROLE ( 'creator' ) ;
#289 = ORIENTED_EDGE ( 'NONE', *, *, #163, .T. ) ;
#290 = COORDINATED_UNIVERSAL_TIME_OFFSET ( 1, 0, .AHEAD. ) ;
#291 = ORIENTED_EDGE ( 'NONE', *, *, #140, .F. ) ;
#292 = EDGE_LOOP ( 'NONE', ( #150, #16, #84, #197 ) ) ;
#293 = PERSON ( 'NEURÈENÝ', 'NEURÈENÝ', 'NEURÈENÝ', ('NEURÈENÝ'), ('NEURÈENÝ'), ('NEURÈENÝ') ) ;
#294 = EDGE_CURVE ( 'NONE', #178, #269, #236, .T. ) ;
#295 = ORIENTED_EDGE ( 'NONE', *, *, #204, .T. ) ;
#296 = VECTOR ( 'NONE', #144, 1000.000000000000000 ) ;
#297 = LINE ( 'NONE', #281, #69 ) ;
#298 = CARTESIAN_POINT ( 'NONE',  ( 0.000000000000000000, 0.000000000000000000, 0.000000000000000000 ) ) ;
#299 = ADVANCED_FACE ( 'NONE', ( #7 ), #123, .F. ) ;
#300 = DIRECTION ( 'NONE',  ( 0.000000000000000000, 0.000000000000000000, 1.000000000000000000 ) ) ;
#301 = CLOSED_SHELL ( 'NONE', ( #276, #133, #77, #258, #34, #299, #266, #222, #170 ) ) ;
#302 = AXIS2_PLACEMENT_3D ( 'NONE', #242, #139, #141 ) ;
#303 = DIRECTION ( 'NONE',  ( 1.224646799147353207E-16, 1.000000000000000000, -0.000000000000000000 ) ) ;
#304 = DESIGN_CONTEXT ( 'detailed design', #131, 'design' ) ;
#305 = APPLICATION_CONTEXT ( 'configuration controlled 3d designs of mechanical parts and assemblies' ) ;
#306 = DIRECTION ( 'NONE',  ( -1.000000000000000000, 0.000000000000000000, 0.000000000000000000 ) ) ;
#307 = EDGE_CURVE ( 'NONE', #269, #201, #96, .T. ) ;
ENDSEC;
END-ISO-10303-21;
