ISO-10303-21;
HEADER;
FILE_DESCRIPTION (( 'STEP AP203' ),
    '1' );
FILE_NAME ('9402.STEP',
    '2023-02-13T07:49:37',
    ( '' ),
    ( '' ),
    'SwSTEP 2.0',
    'SolidWorks 2019',
    '' );
FILE_SCHEMA (( 'CONFIG_CONTROL_DESIGN' ));
ENDSEC;

DATA;
#1 = DIRECTION ( 'NONE',  ( 0.000000000000000000, 0.000000000000000000, 1.000000000000000000 ) ) ;
#2 = APPROVAL_DATE_TIME ( #46, #39 ) ;
#3 = DATE_AND_TIME ( #204, #244 ) ;
#4 = APPROVAL ( #246, 'NEURÈENÝ' ) ;
#5 = EDGE_CURVE ( 'NONE', #116, #50, #29, .T. ) ;
#6 = COORDINATED_UNIVERSAL_TIME_OFFSET ( 1, 0, .AHEAD. ) ;
#7 = ADVANCED_BREP_SHAPE_REPRESENTATION ( '9402', ( #117, #168 ), #206 ) ;
#8 = CARTESIAN_POINT ( 'NONE',  ( -13.00000000000000178, 0.000000000000000000, 8.000000000000000000 ) ) ;
#9 = AXIS2_PLACEMENT_3D ( 'NONE', #93, #248, #189 ) ;
#10 = DIRECTION ( 'NONE',  ( -0.000000000000000000, -0.000000000000000000, -1.000000000000000000 ) ) ;
#11 = DIRECTION ( 'NONE',  ( 1.000000000000000000, 0.000000000000000000, -0.000000000000000000 ) ) ;
#12 = DIRECTION ( 'NONE',  ( 0.000000000000000000, 0.000000000000000000, 1.000000000000000000 ) ) ;
#13 = SECURITY_CLASSIFICATION ( '', '', #159 ) ;
#14 = DIRECTION ( 'NONE',  ( 0.000000000000000000, 0.000000000000000000, 1.000000000000000000 ) ) ;
#15 = CARTESIAN_POINT ( 'NONE',  ( 0.000000000000000000, 0.000000000000000000, 125.0000000000000000 ) ) ;
#16 = EDGE_LOOP ( 'NONE', ( #172, #136, #238, #111 ) ) ;
#17 = CARTESIAN_POINT ( 'NONE',  ( 0.000000000000000000, 0.000000000000000000, 125.0000000000000000 ) ) ;
#18 = PERSON_AND_ORGANIZATION ( #234, #95 ) ;
#19 = EDGE_CURVE ( 'NONE', #115, #37, #129, .T. ) ;
#20 = PERSON_AND_ORGANIZATION ( #234, #95 ) ;
#21 = PERSON_AND_ORGANIZATION ( #234, #95 ) ;
#22 = APPROVAL_DATE_TIME ( #201, #161 ) ;
#23 = PERSON_AND_ORGANIZATION_ROLE ( 'classification_officer' ) ;
#24 = UNCERTAINTY_MEASURE_WITH_UNIT (LENGTH_MEASURE( 1.000000000000000082E-05 ), #182, 'distance_accuracy_value', 'NONE');
#25 = CIRCLE ( 'NONE', #177, 13.00000000000000178 ) ;
#26 = CARTESIAN_POINT ( 'NONE',  ( -13.00000000000000178, 0.000000000000000000, 8.000000000000000000 ) ) ;
#27 = DIRECTION ( 'NONE',  ( 0.000000000000000000, 0.000000000000000000, 1.000000000000000000 ) ) ;
#28 = CARTESIAN_POINT ( 'NONE',  ( 0.000000000000000000, 0.000000000000000000, 125.0000000000000000 ) ) ;
#29 = CIRCLE ( 'NONE', #64, 13.00000000000000178 ) ;
#30 = DIRECTION ( 'NONE',  ( 1.000000000000000000, 0.000000000000000000, 0.000000000000000000 ) ) ;
#31 = ADVANCED_FACE ( 'NONE', ( #135 ), #134, .T. ) ;
#32 = FACE_OUTER_BOUND ( 'NONE', #77, .T. ) ;
#33 = ORIENTED_EDGE ( 'NONE', *, *, #5, .T. ) ;
#34 = PRODUCT ( '9402', '9402', '', ( #85 ) ) ;
#35 = CIRCLE ( 'NONE', #240, 10.00000000000000000 ) ;
#36 = ORIENTED_EDGE ( 'NONE', *, *, #100, .T. ) ;
#37 = VERTEX_POINT ( 'NONE', #239 ) ;
#38 = LOCAL_TIME ( 8, 49, 37.00000000000000000, #121 ) ;
#39 = APPROVAL ( #102, 'NEURÈENÝ' ) ;
#40 = APPLICATION_PROTOCOL_DEFINITION ( 'international standard', 'config_control_design', 1994, #51 ) ;
#41 = EDGE_CURVE ( 'NONE', #167, #118, #35, .T. ) ;
#42 = CARTESIAN_POINT ( 'NONE',  ( -10.00000000000000000, 0.000000000000000000, 125.0000000000000000 ) ) ;
#43 = VECTOR ( 'NONE', #69, 1000.000000000000000 ) ;
#44 = CARTESIAN_POINT ( 'NONE',  ( 0.000000000000000000, 0.000000000000000000, 0.000000000000000000 ) ) ;
#45 = DIRECTION ( 'NONE',  ( 1.000000000000000000, 0.000000000000000000, 0.000000000000000000 ) ) ;
#46 = DATE_AND_TIME ( #220, #199 ) ;
#47 = PERSON_AND_ORGANIZATION ( #234, #95 ) ;
#48 = LOCAL_TIME ( 8, 49, 37.00000000000000000, #6 ) ;
#49 = CYLINDRICAL_SURFACE ( 'NONE', #219, 10.00000000000000000 ) ;
#50 = VERTEX_POINT ( 'NONE', #79 ) ;
#51 = APPLICATION_CONTEXT ( 'configuration controlled 3d designs of mechanical parts and assemblies' ) ;
#52 = CC_DESIGN_DATE_AND_TIME_ASSIGNMENT ( #221, #67, ( #13 ) ) ;
#53 = COORDINATED_UNIVERSAL_TIME_OFFSET ( 1, 0, .AHEAD. ) ;
#54 = CARTESIAN_POINT ( 'NONE',  ( 0.000000000000000000, 0.000000000000000000, 8.000000000000000000 ) ) ;
#55 = ORIENTED_EDGE ( 'NONE', *, *, #162, .F. ) ;
#56 = ORIENTED_EDGE ( 'NONE', *, *, #107, .T. ) ;
#57 = CARTESIAN_POINT ( 'NONE',  ( -13.00000000000000178, 0.000000000000000000, 0.000000000000000000 ) ) ;
#58 = ORIENTED_EDGE ( 'NONE', *, *, #158, .T. ) ;
#59 = DIRECTION ( 'NONE',  ( -0.000000000000000000, -0.000000000000000000, -1.000000000000000000 ) ) ;
#60 = FACE_OUTER_BOUND ( 'NONE', #157, .T. ) ;
#61 = ORIENTED_EDGE ( 'NONE', *, *, #100, .F. ) ;
#62 = DIRECTION ( 'NONE',  ( 1.000000000000000000, 0.000000000000000000, 0.000000000000000000 ) ) ;
#63 = PRODUCT_DEFINITION ( 'NEZNÁMÝ', '', #86, #186 ) ;
#64 = AXIS2_PLACEMENT_3D ( 'NONE', #178, #14, #156 ) ;
#65 = PERSON_AND_ORGANIZATION ( #234, #95 ) ;
#66 = AXIS2_PLACEMENT_3D ( 'NONE', #54, #169, #112 ) ;
#67 = DATE_TIME_ROLE ( 'classification_date' ) ;
#68 = PERSON_AND_ORGANIZATION ( #234, #95 ) ;
#69 = DIRECTION ( 'NONE',  ( -0.000000000000000000, -0.000000000000000000, -1.000000000000000000 ) ) ;
#70 = CLOSED_SHELL ( 'NONE', ( #251, #122, #31, #144, #179, #83, #132 ) ) ;
#71 = VECTOR ( 'NONE', #10, 1000.000000000000000 ) ;
#72 = APPROVAL_ROLE ( '' ) ;
#73 = DIRECTION ( 'NONE',  ( 0.000000000000000000, 0.000000000000000000, 1.000000000000000000 ) ) ;
#74 = FACE_OUTER_BOUND ( 'NONE', #148, .T. ) ;
#75 = EDGE_LOOP ( 'NONE', ( #226, #152, #150, #254 ) ) ;
#76 = DIRECTION ( 'NONE',  ( -0.000000000000000000, -0.000000000000000000, -1.000000000000000000 ) ) ;
#77 = EDGE_LOOP ( 'NONE', ( #193, #128, #99, #61 ) ) ;
#78 = LOCAL_TIME ( 8, 49, 37.00000000000000000, #53 ) ;
#79 = CARTESIAN_POINT ( 'NONE',  ( 13.00000000000000178, 1.592040838891559293E-15, 8.000000000000000000 ) ) ;
#80 = ORIENTED_EDGE ( 'NONE', *, *, #131, .F. ) ;
#81 = AXIS2_PLACEMENT_3D ( 'NONE', #110, #27, #130 ) ;
#82 = EDGE_LOOP ( 'NONE', ( #33, #56 ) ) ;
#83 = ADVANCED_FACE ( 'NONE', ( #60 ), #198, .T. ) ;
#84 = EDGE_LOOP ( 'NONE', ( #229, #55 ) ) ;
#85 = MECHANICAL_CONTEXT ( 'NONE', #51, 'mechanical' ) ;
#86 = PRODUCT_DEFINITION_FORMATION_WITH_SPECIFIED_SOURCE ( 'LIBOVOLNÝ', '', #34, .NOT_KNOWN. ) ;
#87 = PERSON_AND_ORGANIZATION ( #234, #95 ) ;
#88 = APPLICATION_PROTOCOL_DEFINITION ( 'international standard', 'config_control_design', 1994, #253 ) ;
#89 = CALENDAR_DATE ( 2023, 13, 2 ) ;
#90 = EDGE_CURVE ( 'NONE', #235, #96, #25, .T. ) ;
#91 = FACE_BOUND ( 'NONE', #233, .T. ) ;
#92 = AXIS2_PLACEMENT_3D ( 'NONE', #222, #183, #45 ) ;
#93 = CARTESIAN_POINT ( 'NONE',  ( 0.000000000000000000, 0.000000000000000000, 8.000000000000000000 ) ) ;
#94 = LINE ( 'NONE', #8, #43 ) ;
#95 = ORGANIZATION ( 'NEURÈENÝ', 'NEURÈENÝ', '' ) ;
#96 = VERTEX_POINT ( 'NONE', #196 ) ;
#97 = CC_DESIGN_PERSON_AND_ORGANIZATION_ASSIGNMENT ( #68, #23, ( #13 ) ) ;
#98 = ORIENTED_EDGE ( 'NONE', *, *, #237, .F. ) ;
#99 = ORIENTED_EDGE ( 'NONE', *, *, #41, .T. ) ;
#100 = EDGE_CURVE ( 'NONE', #37, #118, #175, .T. ) ;
#101 = CARTESIAN_POINT ( 'NONE',  ( 0.000000000000000000, 0.000000000000000000, 0.000000000000000000 ) ) ;
#102 = APPROVAL_STATUS ( 'not_yet_approved' ) ;
#103 = AXIS2_PLACEMENT_3D ( 'NONE', #174, #255, #154 ) ;
#104 = DIRECTION ( 'NONE',  ( -0.000000000000000000, -0.000000000000000000, -1.000000000000000000 ) ) ;
#105 = APPROVAL_ROLE ( '' ) ;
#106 = APPROVAL_STATUS ( 'not_yet_approved' ) ;
#107 = EDGE_CURVE ( 'NONE', #50, #116, #113, .T. ) ;
#108 = DIRECTION ( 'NONE',  ( -1.000000000000000000, 0.000000000000000000, 0.000000000000000000 ) ) ;
#109 = CC_DESIGN_APPROVAL ( #4, ( #13 ) ) ;
#110 = CARTESIAN_POINT ( 'NONE',  ( 0.000000000000000000, 0.000000000000000000, 0.000000000000000000 ) ) ;
#111 = ORIENTED_EDGE ( 'NONE', *, *, #187, .F. ) ;
#112 = DIRECTION ( 'NONE',  ( -1.000000000000000000, 0.000000000000000000, 0.000000000000000000 ) ) ;
#113 = CIRCLE ( 'NONE', #92, 13.00000000000000178 ) ;
#114 = CC_DESIGN_DATE_AND_TIME_ASSIGNMENT ( #3, #218, ( #63 ) ) ;
#115 = VERTEX_POINT ( 'NONE', #207 ) ;
#116 = VERTEX_POINT ( 'NONE', #26 ) ;
#117 = MANIFOLD_SOLID_BREP ( 'Pøidat vysunutím3', #70 ) ;
#118 = VERTEX_POINT ( 'NONE', #225 ) ;
#119 = DIRECTION ( 'NONE',  ( 1.000000000000000000, 0.000000000000000000, 0.000000000000000000 ) ) ;
#120 = CALENDAR_DATE ( 2023, 13, 2 ) ;
#121 = COORDINATED_UNIVERSAL_TIME_OFFSET ( 1, 0, .AHEAD. ) ;
#122 = ADVANCED_FACE ( 'NONE', ( #147 ), #127, .T. ) ;
#123 = AXIS2_PLACEMENT_3D ( 'NONE', #247, #73, #11 ) ;
#124 = DIRECTION ( 'NONE',  ( -0.000000000000000000, -0.000000000000000000, -1.000000000000000000 ) ) ;
#125 = APPROVAL_DATE_TIME ( #165, #4 ) ;
#126 = DIRECTION ( 'NONE',  ( 1.000000000000000000, 0.000000000000000000, -0.000000000000000000 ) ) ;
#127 = CYLINDRICAL_SURFACE ( 'NONE', #66, 13.00000000000000178 ) ;
#128 = ORIENTED_EDGE ( 'NONE', *, *, #131, .T. ) ;
#129 = CIRCLE ( 'NONE', #160, 10.00000000000000000 ) ;
#130 = DIRECTION ( 'NONE',  ( 1.000000000000000000, 0.000000000000000000, 0.000000000000000000 ) ) ;
#131 = EDGE_CURVE ( 'NONE', #115, #167, #149, .T. ) ;
#132 = ADVANCED_FACE ( 'NONE', ( #74 ), #191, .T. ) ;
#133 = ORIENTED_EDGE ( 'NONE', *, *, #19, .T. ) ;
#134 = CYLINDRICAL_SURFACE ( 'NONE', #103, 13.00000000000000178 ) ;
#135 = FACE_OUTER_BOUND ( 'NONE', #75, .T. ) ;
#136 = ORIENTED_EDGE ( 'NONE', *, *, #205, .T. ) ;
#137 = DIRECTION ( 'NONE',  ( 1.000000000000000000, 0.000000000000000000, 0.000000000000000000 ) ) ;
#138 = AXIS2_PLACEMENT_3D ( 'NONE', #211, #212, #30 ) ;
#139 = PERSON_AND_ORGANIZATION_ROLE ( 'design_owner' ) ;
#140 = PERSON_AND_ORGANIZATION_ROLE ( 'creator' ) ;
#141 = CC_DESIGN_PERSON_AND_ORGANIZATION_ASSIGNMENT ( #163, #180, ( #86 ) ) ;
#142 = COORDINATED_UNIVERSAL_TIME_OFFSET ( 1, 0, .AHEAD. ) ;
#143 = APPROVAL_PERSON_ORGANIZATION ( #87, #161, #241 ) ;
#144 = ADVANCED_FACE ( 'NONE', ( #91, #151 ), #230, .T. ) ;
#145 = DIRECTION ( 'NONE',  ( 1.000000000000000000, 0.000000000000000000, 0.000000000000000000 ) ) ;
#146 = SHAPE_DEFINITION_REPRESENTATION ( #249, #7 ) ;
#147 = FACE_OUTER_BOUND ( 'NONE', #16, .T. ) ;
#148 = EDGE_LOOP ( 'NONE', ( #58, #133 ) ) ;
#149 = LINE ( 'NONE', #250, #71 ) ;
#150 = ORIENTED_EDGE ( 'NONE', *, *, #187, .T. ) ;
#151 = FACE_OUTER_BOUND ( 'NONE', #82, .T. ) ;
#152 = ORIENTED_EDGE ( 'NONE', *, *, #5, .F. ) ;
#153 = AXIS2_PLACEMENT_3D ( 'NONE', #17, #59, #216 ) ;
#154 = DIRECTION ( 'NONE',  ( -1.000000000000000000, 0.000000000000000000, 0.000000000000000000 ) ) ;
#155 = DIRECTION ( 'NONE',  ( 1.000000000000000000, 0.000000000000000000, 0.000000000000000000 ) ) ;
#156 = DIRECTION ( 'NONE',  ( 1.000000000000000000, 0.000000000000000000, 0.000000000000000000 ) ) ;
#157 = EDGE_LOOP ( 'NONE', ( #80, #236, #36, #213 ) ) ;
#158 = EDGE_CURVE ( 'NONE', #37, #115, #214, .T. ) ;
#159 = SECURITY_CLASSIFICATION_LEVEL ( 'unclassified' ) ;
#160 = AXIS2_PLACEMENT_3D ( 'NONE', #15, #197, #137 ) ;
#161 = APPROVAL ( #106, 'NEURÈENÝ' ) ;
#162 = EDGE_CURVE ( 'NONE', #96, #235, #231, .T. ) ;
#163 = PERSON_AND_ORGANIZATION ( #234, #95 ) ;
#164 = AXIS2_PLACEMENT_3D ( 'NONE', #194, #12, #126 ) ;
#165 = DATE_AND_TIME ( #227, #78 ) ;
#166 = PLANE ( 'NONE',  #123 ) ;
#167 = VERTEX_POINT ( 'NONE', #192 ) ;
#168 = AXIS2_PLACEMENT_3D ( 'NONE', #44, #242, #119 ) ;
#169 = DIRECTION ( 'NONE',  ( -0.000000000000000000, -0.000000000000000000, -1.000000000000000000 ) ) ;
#170 = ORIENTED_EDGE ( 'NONE', *, *, #41, .F. ) ;
#171 = CARTESIAN_POINT ( 'NONE',  ( 13.00000000000000178, 1.592040838891559293E-15, 8.000000000000000000 ) ) ;
#172 = ORIENTED_EDGE ( 'NONE', *, *, #107, .F. ) ;
#173 = CIRCLE ( 'NONE', #210, 10.00000000000000000 ) ;
#174 = CARTESIAN_POINT ( 'NONE',  ( 0.000000000000000000, 0.000000000000000000, 8.000000000000000000 ) ) ;
#175 = LINE ( 'NONE', #42, #224 ) ;
#176 = DIRECTION ( 'NONE',  ( 0.000000000000000000, 0.000000000000000000, 1.000000000000000000 ) ) ;
#177 = AXIS2_PLACEMENT_3D ( 'NONE', #101, #1, #62 ) ;
#178 = CARTESIAN_POINT ( 'NONE',  ( 0.000000000000000000, 0.000000000000000000, 8.000000000000000000 ) ) ;
#179 = ADVANCED_FACE ( 'NONE', ( #232 ), #166, .F. ) ;
#180 = PERSON_AND_ORGANIZATION_ROLE ( 'design_supplier' ) ;
#181 = CC_DESIGN_SECURITY_CLASSIFICATION ( #13, ( #86 ) ) ;
#182 =( LENGTH_UNIT ( ) NAMED_UNIT ( * ) SI_UNIT ( .MILLI., .METRE. ) );
#183 = DIRECTION ( 'NONE',  ( 0.000000000000000000, 0.000000000000000000, 1.000000000000000000 ) ) ;
#184 =( NAMED_UNIT ( * ) PLANE_ANGLE_UNIT ( ) SI_UNIT ( $, .RADIAN. ) );
#185 = CC_DESIGN_APPROVAL ( #161, ( #86 ) ) ;
#186 = DESIGN_CONTEXT ( 'detailed design', #253, 'design' ) ;
#187 = EDGE_CURVE ( 'NONE', #116, #235, #94, .T. ) ;
#188 = CC_DESIGN_PERSON_AND_ORGANIZATION_ASSIGNMENT ( #18, #203, ( #86 ) ) ;
#189 = DIRECTION ( 'NONE',  ( 1.000000000000000000, 0.000000000000000000, -0.000000000000000000 ) ) ;
#190 = APPROVAL_PERSON_ORGANIZATION ( #65, #39, #105 ) ;
#191 = PLANE ( 'NONE',  #164 ) ;
#192 = CARTESIAN_POINT ( 'NONE',  ( 10.00000000000000000, 1.224646799147353256E-15, 8.000000000000000000 ) ) ;
#193 = ORIENTED_EDGE ( 'NONE', *, *, #19, .F. ) ;
#194 = CARTESIAN_POINT ( 'NONE',  ( 0.000000000000000000, 0.000000000000000000, 125.0000000000000000 ) ) ;
#195 = APPROVAL_PERSON_ORGANIZATION ( #47, #4, #72 ) ;
#196 = CARTESIAN_POINT ( 'NONE',  ( 13.00000000000000178, 1.592040838891559293E-15, 0.000000000000000000 ) ) ;
#197 = DIRECTION ( 'NONE',  ( 0.000000000000000000, 0.000000000000000000, 1.000000000000000000 ) ) ;
#198 = CYLINDRICAL_SURFACE ( 'NONE', #153, 10.00000000000000000 ) ;
#199 = LOCAL_TIME ( 8, 49, 37.00000000000000000, #243 ) ;
#200 = CC_DESIGN_PERSON_AND_ORGANIZATION_ASSIGNMENT ( #20, #139, ( #34 ) ) ;
#201 = DATE_AND_TIME ( #120, #38 ) ;
#202 = CC_DESIGN_APPROVAL ( #39, ( #63 ) ) ;
#203 = PERSON_AND_ORGANIZATION_ROLE ( 'creator' ) ;
#204 = CALENDAR_DATE ( 2023, 13, 2 ) ;
#205 = EDGE_CURVE ( 'NONE', #50, #96, #228, .T. ) ;
#206 =( GEOMETRIC_REPRESENTATION_CONTEXT ( 3 ) GLOBAL_UNCERTAINTY_ASSIGNED_CONTEXT ( ( #24 ) ) GLOBAL_UNIT_ASSIGNED_CONTEXT ( ( #182, #184, #217 ) ) REPRESENTATION_CONTEXT ( 'NONE', 'WORKASPACE' ) );
#207 = CARTESIAN_POINT ( 'NONE',  ( 10.00000000000000000, 1.224646799147353256E-15, 125.0000000000000000 ) ) ;
#208 = CARTESIAN_POINT ( 'NONE',  ( 0.000000000000000000, 0.000000000000000000, 8.000000000000000000 ) ) ;
#209 = DIRECTION ( 'NONE',  ( 0.000000000000000000, 0.000000000000000000, 1.000000000000000000 ) ) ;
#210 = AXIS2_PLACEMENT_3D ( 'NONE', #208, #209, #145 ) ;
#211 = CARTESIAN_POINT ( 'NONE',  ( 0.000000000000000000, 0.000000000000000000, 125.0000000000000000 ) ) ;
#212 = DIRECTION ( 'NONE',  ( 0.000000000000000000, 0.000000000000000000, 1.000000000000000000 ) ) ;
#213 = ORIENTED_EDGE ( 'NONE', *, *, #237, .T. ) ;
#214 = CIRCLE ( 'NONE', #138, 10.00000000000000000 ) ;
#215 = PRODUCT_RELATED_PRODUCT_CATEGORY ( 'detail', '', ( #34 ) ) ;
#216 = DIRECTION ( 'NONE',  ( -1.000000000000000000, 0.000000000000000000, 0.000000000000000000 ) ) ;
#217 =( NAMED_UNIT ( * ) SI_UNIT ( $, .STERADIAN. ) SOLID_ANGLE_UNIT ( ) );
#218 = DATE_TIME_ROLE ( 'creation_date' ) ;
#219 = AXIS2_PLACEMENT_3D ( 'NONE', #28, #124, #108 ) ;
#220 = CALENDAR_DATE ( 2023, 13, 2 ) ;
#221 = DATE_AND_TIME ( #89, #48 ) ;
#222 = CARTESIAN_POINT ( 'NONE',  ( 0.000000000000000000, 0.000000000000000000, 8.000000000000000000 ) ) ;
#223 = CC_DESIGN_PERSON_AND_ORGANIZATION_ASSIGNMENT ( #21, #140, ( #63 ) ) ;
#224 = VECTOR ( 'NONE', #104, 1000.000000000000000 ) ;
#225 = CARTESIAN_POINT ( 'NONE',  ( -10.00000000000000000, 0.000000000000000000, 8.000000000000000000 ) ) ;
#226 = ORIENTED_EDGE ( 'NONE', *, *, #205, .F. ) ;
#227 = CALENDAR_DATE ( 2023, 13, 2 ) ;
#228 = LINE ( 'NONE', #171, #245 ) ;
#229 = ORIENTED_EDGE ( 'NONE', *, *, #90, .F. ) ;
#230 = PLANE ( 'NONE',  #9 ) ;
#231 = CIRCLE ( 'NONE', #81, 13.00000000000000178 ) ;
#232 = FACE_OUTER_BOUND ( 'NONE', #84, .T. ) ;
#233 = EDGE_LOOP ( 'NONE', ( #98, #170 ) ) ;
#234 = PERSON ( 'NEURÈENÝ', 'NEURÈENÝ', 'NEURÈENÝ', ('NEURÈENÝ'), ('NEURÈENÝ'), ('NEURÈENÝ') ) ;
#235 = VERTEX_POINT ( 'NONE', #57 ) ;
#236 = ORIENTED_EDGE ( 'NONE', *, *, #158, .F. ) ;
#237 = EDGE_CURVE ( 'NONE', #118, #167, #173, .T. ) ;
#238 = ORIENTED_EDGE ( 'NONE', *, *, #162, .T. ) ;
#239 = CARTESIAN_POINT ( 'NONE',  ( -10.00000000000000000, 0.000000000000000000, 125.0000000000000000 ) ) ;
#240 = AXIS2_PLACEMENT_3D ( 'NONE', #252, #176, #155 ) ;
#241 = APPROVAL_ROLE ( '' ) ;
#242 = DIRECTION ( 'NONE',  ( 0.000000000000000000, 0.000000000000000000, 1.000000000000000000 ) ) ;
#243 = COORDINATED_UNIVERSAL_TIME_OFFSET ( 1, 0, .AHEAD. ) ;
#244 = LOCAL_TIME ( 8, 49, 37.00000000000000000, #142 ) ;
#245 = VECTOR ( 'NONE', #76, 1000.000000000000000 ) ;
#246 = APPROVAL_STATUS ( 'not_yet_approved' ) ;
#247 = CARTESIAN_POINT ( 'NONE',  ( 0.000000000000000000, 0.000000000000000000, 0.000000000000000000 ) ) ;
#248 = DIRECTION ( 'NONE',  ( 0.000000000000000000, 0.000000000000000000, 1.000000000000000000 ) ) ;
#249 = PRODUCT_DEFINITION_SHAPE ( 'NONE', 'NONE',  #63 ) ;
#250 = CARTESIAN_POINT ( 'NONE',  ( 10.00000000000000000, 1.224646799147353256E-15, 125.0000000000000000 ) ) ;
#251 = ADVANCED_FACE ( 'NONE', ( #32 ), #49, .T. ) ;
#252 = CARTESIAN_POINT ( 'NONE',  ( 0.000000000000000000, 0.000000000000000000, 8.000000000000000000 ) ) ;
#253 = APPLICATION_CONTEXT ( 'configuration controlled 3d designs of mechanical parts and assemblies' ) ;
#254 = ORIENTED_EDGE ( 'NONE', *, *, #90, .T. ) ;
#255 = DIRECTION ( 'NONE',  ( -0.000000000000000000, -0.000000000000000000, -1.000000000000000000 ) ) ;
ENDSEC;
END-ISO-10303-21;
