ISO-10303-21;
HEADER;
FILE_DESCRIPTION (( 'STEP AP203' ),
    '1' );
FILE_NAME ('ab3d.STEP',
    '2023-02-13T07:47:37',
    ( '' ),
    ( '' ),
    'SwSTEP 2.0',
    'SolidWorks 2019',
    '' );
FILE_SCHEMA (( 'CONFIG_CONTROL_DESIGN' ));
ENDSEC;

DATA;
#1 = PRODUCT ( 'ab3d', 'ab3d', '', ( #128 ) ) ;
#2 = DIRECTION ( 'NONE',  ( -0.000000000000000000, -0.000000000000000000, -1.000000000000000000 ) ) ;
#3 = APPROVAL ( #107, 'NEURÈENÝ' ) ;
#4 = CARTESIAN_POINT ( 'NONE',  ( 0.000000000000000000, 0.000000000000000000, 10.00000000000000000 ) ) ;
#5 = CC_DESIGN_SECURITY_CLASSIFICATION ( #180, ( #161 ) ) ;
#6 = DIRECTION ( 'NONE',  ( 1.000000000000000000, 0.000000000000000000, 0.000000000000000000 ) ) ;
#7 = PERSON_AND_ORGANIZATION ( #239, #169 ) ;
#8 = EDGE_CURVE ( 'NONE', #132, #18, #27, .T. ) ;
#9 = AXIS2_PLACEMENT_3D ( 'NONE', #211, #2, #144 ) ;
#10 = CIRCLE ( 'NONE', #29, 12.50000000000000000 ) ;
#11 = CARTESIAN_POINT ( 'NONE',  ( 12.50000000000000000, 1.530808498934191521E-15, 315.0000000000000000 ) ) ;
#12 = APPROVAL_ROLE ( '' ) ;
#13 = CIRCLE ( 'NONE', #87, 12.50000000000000000 ) ;
#14 = AXIS2_PLACEMENT_3D ( 'NONE', #237, #98, #58 ) ;
#15 = VERTEX_POINT ( 'NONE', #36 ) ;
#16 = AXIS2_PLACEMENT_3D ( 'NONE', #225, #150, #129 ) ;
#17 = FACE_OUTER_BOUND ( 'NONE', #25, .T. ) ;
#18 = VERTEX_POINT ( 'NONE', #108 ) ;
#19 = CYLINDRICAL_SURFACE ( 'NONE', #9, 12.50000000000000000 ) ;
#20 = APPLICATION_CONTEXT ( 'configuration controlled 3d designs of mechanical parts and assemblies' ) ;
#21 = CYLINDRICAL_SURFACE ( 'NONE', #241, 16.00000000000000000 ) ;
#22 = DATE_AND_TIME ( #96, #247 ) ;
#23 = DIRECTION ( 'NONE',  ( 0.000000000000000000, 0.000000000000000000, 1.000000000000000000 ) ) ;
#24 = CC_DESIGN_PERSON_AND_ORGANIZATION_ASSIGNMENT ( #147, #137, ( #180 ) ) ;
#25 = EDGE_LOOP ( 'NONE', ( #140, #240 ) ) ;
#26 =( NAMED_UNIT ( * ) PLANE_ANGLE_UNIT ( ) SI_UNIT ( $, .RADIAN. ) );
#27 = CIRCLE ( 'NONE', #42, 16.00000000000000000 ) ;
#28 = ORIENTED_EDGE ( 'NONE', *, *, #8, .F. ) ;
#29 = AXIS2_PLACEMENT_3D ( 'NONE', #164, #234, #38 ) ;
#30 = FACE_OUTER_BOUND ( 'NONE', #72, .T. ) ;
#31 = EDGE_CURVE ( 'NONE', #15, #18, #224, .T. ) ;
#32 = FACE_OUTER_BOUND ( 'NONE', #230, .T. ) ;
#33 = EDGE_LOOP ( 'NONE', ( #243, #249 ) ) ;
#34 = FACE_BOUND ( 'NONE', #233, .T. ) ;
#35 = DIRECTION ( 'NONE',  ( -1.000000000000000000, 0.000000000000000000, 0.000000000000000000 ) ) ;
#36 = CARTESIAN_POINT ( 'NONE',  ( -16.00000000000000000, 0.000000000000000000, 10.00000000000000000 ) ) ;
#37 = FACE_OUTER_BOUND ( 'NONE', #200, .T. ) ;
#38 = DIRECTION ( 'NONE',  ( 1.000000000000000000, 0.000000000000000000, 0.000000000000000000 ) ) ;
#39 = CLOSED_SHELL ( 'NONE', ( #151, #202, #43, #134, #255, #242, #158 ) ) ;
#40 = PRODUCT_DEFINITION ( 'NEZNÁMÝ', '', #161, #124 ) ;
#41 = PERSON_AND_ORGANIZATION_ROLE ( 'creator' ) ;
#42 = AXIS2_PLACEMENT_3D ( 'NONE', #71, #229, #133 ) ;
#43 = ADVANCED_FACE ( 'NONE', ( #32 ), #21, .T. ) ;
#44 = DATE_AND_TIME ( #213, #135 ) ;
#45 = APPROVAL_ROLE ( '' ) ;
#46 = CC_DESIGN_DATE_AND_TIME_ASSIGNMENT ( #22, #232, ( #40 ) ) ;
#47 = APPROVAL_PERSON_ORGANIZATION ( #75, #3, #12 ) ;
#48 = ORIENTED_EDGE ( 'NONE', *, *, #62, .F. ) ;
#49 = ORIENTED_EDGE ( 'NONE', *, *, #8, .T. ) ;
#50 = CARTESIAN_POINT ( 'NONE',  ( 16.00000000000000000, 1.959434878635765131E-15, 10.00000000000000000 ) ) ;
#51 = ADVANCED_BREP_SHAPE_REPRESENTATION ( 'ab3d', ( #81, #184 ), #156 ) ;
#52 =( NAMED_UNIT ( * ) SI_UNIT ( $, .STERADIAN. ) SOLID_ANGLE_UNIT ( ) );
#53 = CARTESIAN_POINT ( 'NONE',  ( 0.000000000000000000, 0.000000000000000000, 0.000000000000000000 ) ) ;
#54 = SECURITY_CLASSIFICATION_LEVEL ( 'unclassified' ) ;
#55 = ORIENTED_EDGE ( 'NONE', *, *, #167, .F. ) ;
#56 = DIRECTION ( 'NONE',  ( 1.000000000000000000, 0.000000000000000000, 0.000000000000000000 ) ) ;
#57 = AXIS2_PLACEMENT_3D ( 'NONE', #170, #143, #154 ) ;
#58 = DIRECTION ( 'NONE',  ( 1.000000000000000000, 0.000000000000000000, 0.000000000000000000 ) ) ;
#59 = COORDINATED_UNIVERSAL_TIME_OFFSET ( 1, 0, .AHEAD. ) ;
#60 = AXIS2_PLACEMENT_3D ( 'NONE', #168, #112, #173 ) ;
#61 = COORDINATED_UNIVERSAL_TIME_OFFSET ( 1, 0, .AHEAD. ) ;
#62 = EDGE_CURVE ( 'NONE', #209, #132, #166, .T. ) ;
#63 = VERTEX_POINT ( 'NONE', #153 ) ;
#64 = EDGE_CURVE ( 'NONE', #215, #130, #104, .T. ) ;
#65 = DIRECTION ( 'NONE',  ( 1.000000000000000000, 0.000000000000000000, 0.000000000000000000 ) ) ;
#66 = CIRCLE ( 'NONE', #120, 12.50000000000000000 ) ;
#67 = APPROVAL_PERSON_ORGANIZATION ( #196, #226, #45 ) ;
#68 = ORIENTED_EDGE ( 'NONE', *, *, #171, .F. ) ;
#69 = PLANE ( 'NONE',  #214 ) ;
#70 = APPROVAL ( #80, 'NEURÈENÝ' ) ;
#71 = CARTESIAN_POINT ( 'NONE',  ( 0.000000000000000000, 0.000000000000000000, 0.000000000000000000 ) ) ;
#72 = EDGE_LOOP ( 'NONE', ( #55, #207, #245, #252 ) ) ;
#73 = CC_DESIGN_APPROVAL ( #3, ( #161 ) ) ;
#74 = PLANE ( 'NONE',  #60 ) ;
#75 = PERSON_AND_ORGANIZATION ( #239, #169 ) ;
#76 = CALENDAR_DATE ( 2023, 13, 2 ) ;
#77 = DIRECTION ( 'NONE',  ( 0.000000000000000000, 0.000000000000000000, 1.000000000000000000 ) ) ;
#78 = CYLINDRICAL_SURFACE ( 'NONE', #89, 16.00000000000000000 ) ;
#79 = PERSON_AND_ORGANIZATION_ROLE ( 'design_owner' ) ;
#80 = APPROVAL_STATUS ( 'not_yet_approved' ) ;
#81 = MANIFOLD_SOLID_BREP ( 'Pøidat vysunutím3', #39 ) ;
#82 = APPROVAL_DATE_TIME ( #236, #3 ) ;
#83 = VECTOR ( 'NONE', #106, 1000.000000000000000 ) ;
#84 = EDGE_CURVE ( 'NONE', #18, #132, #116, .T. ) ;
#85 = ORIENTED_EDGE ( 'NONE', *, *, #31, .F. ) ;
#86 = APPROVAL_DATE_TIME ( #206, #226 ) ;
#87 = AXIS2_PLACEMENT_3D ( 'NONE', #235, #95, #65 ) ;
#88 = EDGE_CURVE ( 'NONE', #15, #209, #111, .T. ) ;
#89 = AXIS2_PLACEMENT_3D ( 'NONE', #115, #123, #244 ) ;
#90 = DIRECTION ( 'NONE',  ( -0.000000000000000000, -0.000000000000000000, -1.000000000000000000 ) ) ;
#91 = FACE_OUTER_BOUND ( 'NONE', #217, .T. ) ;
#92 = DIRECTION ( 'NONE',  ( -0.000000000000000000, -0.000000000000000000, -1.000000000000000000 ) ) ;
#93 = DIRECTION ( 'NONE',  ( 1.000000000000000000, 0.000000000000000000, 0.000000000000000000 ) ) ;
#94 = CARTESIAN_POINT ( 'NONE',  ( -12.50000000000000000, 0.000000000000000000, 10.00000000000000000 ) ) ;
#95 = DIRECTION ( 'NONE',  ( 0.000000000000000000, 0.000000000000000000, 1.000000000000000000 ) ) ;
#96 = CALENDAR_DATE ( 2023, 13, 2 ) ;
#97 = PERSON_AND_ORGANIZATION ( #239, #169 ) ;
#98 = DIRECTION ( 'NONE',  ( 0.000000000000000000, 0.000000000000000000, 1.000000000000000000 ) ) ;
#99 = ORIENTED_EDGE ( 'NONE', *, *, #31, .T. ) ;
#100 = LOCAL_TIME ( 8, 47, 37.00000000000000000, #141 ) ;
#101 = APPROVAL_STATUS ( 'not_yet_approved' ) ;
#102 = LOCAL_TIME ( 8, 47, 37.00000000000000000, #61 ) ;
#103 = DIRECTION ( 'NONE',  ( 1.000000000000000000, 0.000000000000000000, 0.000000000000000000 ) ) ;
#104 = LINE ( 'NONE', #210, #178 ) ;
#105 = ORIENTED_EDGE ( 'NONE', *, *, #176, .F. ) ;
#106 = DIRECTION ( 'NONE',  ( -0.000000000000000000, -0.000000000000000000, -1.000000000000000000 ) ) ;
#107 = APPROVAL_STATUS ( 'not_yet_approved' ) ;
#108 = CARTESIAN_POINT ( 'NONE',  ( -16.00000000000000000, 0.000000000000000000, 0.000000000000000000 ) ) ;
#109 = DIRECTION ( 'NONE',  ( 0.000000000000000000, 0.000000000000000000, 1.000000000000000000 ) ) ;
#110 = CC_DESIGN_PERSON_AND_ORGANIZATION_ASSIGNMENT ( #7, #174, ( #161 ) ) ;
#111 = CIRCLE ( 'NONE', #253, 16.00000000000000000 ) ;
#112 = DIRECTION ( 'NONE',  ( 0.000000000000000000, 0.000000000000000000, 1.000000000000000000 ) ) ;
#113 = CC_DESIGN_DATE_AND_TIME_ASSIGNMENT ( #194, #195, ( #180 ) ) ;
#114 = CARTESIAN_POINT ( 'NONE',  ( 12.50000000000000000, 1.530808498934191521E-15, 315.0000000000000000 ) ) ;
#115 = CARTESIAN_POINT ( 'NONE',  ( 0.000000000000000000, 0.000000000000000000, 10.00000000000000000 ) ) ;
#116 = CIRCLE ( 'NONE', #222, 16.00000000000000000 ) ;
#117 = COORDINATED_UNIVERSAL_TIME_OFFSET ( 1, 0, .AHEAD. ) ;
#118 = APPROVAL_DATE_TIME ( #44, #70 ) ;
#119 = SHAPE_DEFINITION_REPRESENTATION ( #219, #51 ) ;
#120 = AXIS2_PLACEMENT_3D ( 'NONE', #4, #77, #6 ) ;
#121 = PERSON_AND_ORGANIZATION ( #239, #169 ) ;
#122 = PRODUCT_RELATED_PRODUCT_CATEGORY ( 'detail', '', ( #1 ) ) ;
#123 = DIRECTION ( 'NONE',  ( -0.000000000000000000, -0.000000000000000000, -1.000000000000000000 ) ) ;
#124 = DESIGN_CONTEXT ( 'detailed design', #20, 'design' ) ;
#125 = VECTOR ( 'NONE', #193, 1000.000000000000000 ) ;
#126 = AXIS2_PLACEMENT_3D ( 'NONE', #136, #23, #56 ) ;
#127 = CC_DESIGN_PERSON_AND_ORGANIZATION_ASSIGNMENT ( #121, #79, ( #1 ) ) ;
#128 = MECHANICAL_CONTEXT ( 'NONE', #172, 'mechanical' ) ;
#129 = DIRECTION ( 'NONE',  ( -1.000000000000000000, 0.000000000000000000, 0.000000000000000000 ) ) ;
#130 = VERTEX_POINT ( 'NONE', #94 ) ;
#131 = DIRECTION ( 'NONE',  ( 1.000000000000000000, 0.000000000000000000, 0.000000000000000000 ) ) ;
#132 = VERTEX_POINT ( 'NONE', #185 ) ;
#133 = DIRECTION ( 'NONE',  ( 1.000000000000000000, 0.000000000000000000, 0.000000000000000000 ) ) ;
#134 = ADVANCED_FACE ( 'NONE', ( #34, #17 ), #251, .T. ) ;
#135 = LOCAL_TIME ( 8, 47, 37.00000000000000000, #117 ) ;
#136 = CARTESIAN_POINT ( 'NONE',  ( 0.000000000000000000, 0.000000000000000000, 315.0000000000000000 ) ) ;
#137 = PERSON_AND_ORGANIZATION_ROLE ( 'classification_officer' ) ;
#138 = CALENDAR_DATE ( 2023, 13, 2 ) ;
#139 = EDGE_CURVE ( 'NONE', #63, #130, #13, .T. ) ;
#140 = ORIENTED_EDGE ( 'NONE', *, *, #88, .T. ) ;
#141 = COORDINATED_UNIVERSAL_TIME_OFFSET ( 1, 0, .AHEAD. ) ;
#142 = ORIENTED_EDGE ( 'NONE', *, *, #84, .F. ) ;
#143 = DIRECTION ( 'NONE',  ( 0.000000000000000000, 0.000000000000000000, 1.000000000000000000 ) ) ;
#144 = DIRECTION ( 'NONE',  ( -1.000000000000000000, 0.000000000000000000, 0.000000000000000000 ) ) ;
#145 = CALENDAR_DATE ( 2023, 13, 2 ) ;
#146 = ORIENTED_EDGE ( 'NONE', *, *, #88, .F. ) ;
#147 = PERSON_AND_ORGANIZATION ( #239, #169 ) ;
#148 = CARTESIAN_POINT ( 'NONE',  ( 0.000000000000000000, 0.000000000000000000, 10.00000000000000000 ) ) ;
#149 = ORIENTED_EDGE ( 'NONE', *, *, #64, .F. ) ;
#150 = DIRECTION ( 'NONE',  ( -0.000000000000000000, -0.000000000000000000, -1.000000000000000000 ) ) ;
#151 = ADVANCED_FACE ( 'NONE', ( #37 ), #19, .T. ) ;
#152 = CC_DESIGN_APPROVAL ( #226, ( #40 ) ) ;
#153 = CARTESIAN_POINT ( 'NONE',  ( 12.50000000000000000, 1.530808498934191521E-15, 10.00000000000000000 ) ) ;
#154 = DIRECTION ( 'NONE',  ( 1.000000000000000000, 0.000000000000000000, -0.000000000000000000 ) ) ;
#155 = CIRCLE ( 'NONE', #14, 16.00000000000000000 ) ;
#156 =( GEOMETRIC_REPRESENTATION_CONTEXT ( 3 ) GLOBAL_UNCERTAINTY_ASSIGNED_CONTEXT ( ( #181 ) ) GLOBAL_UNIT_ASSIGNED_CONTEXT ( ( #189, #26, #52 ) ) REPRESENTATION_CONTEXT ( 'NONE', 'WORKASPACE' ) );
#157 = EDGE_LOOP ( 'NONE', ( #105, #221, #49, #85 ) ) ;
#158 = ADVANCED_FACE ( 'NONE', ( #190 ), #74, .T. ) ;
#159 = APPROVAL_ROLE ( '' ) ;
#160 = CC_DESIGN_PERSON_AND_ORGANIZATION_ASSIGNMENT ( #248, #41, ( #40 ) ) ;
#161 = PRODUCT_DEFINITION_FORMATION_WITH_SPECIFIED_SOURCE ( 'LIBOVOLNÝ', '', #1, .NOT_KNOWN. ) ;
#162 = PERSON_AND_ORGANIZATION_ROLE ( 'creator' ) ;
#163 = APPLICATION_PROTOCOL_DEFINITION ( 'international standard', 'config_control_design', 1994, #20 ) ;
#164 = CARTESIAN_POINT ( 'NONE',  ( 0.000000000000000000, 0.000000000000000000, 315.0000000000000000 ) ) ;
#165 = CARTESIAN_POINT ( 'NONE',  ( 0.000000000000000000, 0.000000000000000000, 0.000000000000000000 ) ) ;
#166 = LINE ( 'NONE', #227, #231 ) ;
#167 = EDGE_CURVE ( 'NONE', #238, #63, #175, .T. ) ;
#168 = CARTESIAN_POINT ( 'NONE',  ( 0.000000000000000000, 0.000000000000000000, 315.0000000000000000 ) ) ;
#169 = ORGANIZATION ( 'NEURÈENÝ', 'NEURÈENÝ', '' ) ;
#170 = CARTESIAN_POINT ( 'NONE',  ( 0.000000000000000000, 0.000000000000000000, 10.00000000000000000 ) ) ;
#171 = EDGE_CURVE ( 'NONE', #130, #63, #66, .T. ) ;
#172 = APPLICATION_CONTEXT ( 'configuration controlled 3d designs of mechanical parts and assemblies' ) ;
#173 = DIRECTION ( 'NONE',  ( 1.000000000000000000, 0.000000000000000000, -0.000000000000000000 ) ) ;
#174 = PERSON_AND_ORGANIZATION_ROLE ( 'design_supplier' ) ;
#175 = LINE ( 'NONE', #11, #125 ) ;
#176 = EDGE_CURVE ( 'NONE', #209, #15, #155, .T. ) ;
#177 = FACE_OUTER_BOUND ( 'NONE', #157, .T. ) ;
#178 = VECTOR ( 'NONE', #90, 1000.000000000000000 ) ;
#179 = CIRCLE ( 'NONE', #126, 12.50000000000000000 ) ;
#180 = SECURITY_CLASSIFICATION ( '', '', #54 ) ;
#181 = UNCERTAINTY_MEASURE_WITH_UNIT (LENGTH_MEASURE( 1.000000000000000082E-05 ), #189, 'distance_accuracy_value', 'NONE');
#182 = APPLICATION_PROTOCOL_DEFINITION ( 'international standard', 'config_control_design', 1994, #172 ) ;
#183 = COORDINATED_UNIVERSAL_TIME_OFFSET ( 1, 0, .AHEAD. ) ;
#184 = AXIS2_PLACEMENT_3D ( 'NONE', #212, #250, #103 ) ;
#185 = CARTESIAN_POINT ( 'NONE',  ( 16.00000000000000000, 1.959434878635765131E-15, 0.000000000000000000 ) ) ;
#186 = CYLINDRICAL_SURFACE ( 'NONE', #16, 12.50000000000000000 ) ;
#187 = ORIENTED_EDGE ( 'NONE', *, *, #139, .T. ) ;
#188 = DIRECTION ( 'NONE',  ( -0.000000000000000000, -0.000000000000000000, -1.000000000000000000 ) ) ;
#189 =( LENGTH_UNIT ( ) NAMED_UNIT ( * ) SI_UNIT ( .MILLI., .METRE. ) );
#190 = FACE_OUTER_BOUND ( 'NONE', #33, .T. ) ;
#191 = DIRECTION ( 'NONE',  ( 0.000000000000000000, 0.000000000000000000, 1.000000000000000000 ) ) ;
#192 = LOCAL_TIME ( 8, 47, 37.00000000000000000, #183 ) ;
#193 = DIRECTION ( 'NONE',  ( -0.000000000000000000, -0.000000000000000000, -1.000000000000000000 ) ) ;
#194 = DATE_AND_TIME ( #138, #102 ) ;
#195 = DATE_TIME_ROLE ( 'classification_date' ) ;
#196 = PERSON_AND_ORGANIZATION ( #239, #169 ) ;
#197 = ORIENTED_EDGE ( 'NONE', *, *, #84, .T. ) ;
#198 = CARTESIAN_POINT ( 'NONE',  ( -12.50000000000000000, 0.000000000000000000, 315.0000000000000000 ) ) ;
#199 = CC_DESIGN_PERSON_AND_ORGANIZATION_ASSIGNMENT ( #218, #162, ( #161 ) ) ;
#200 = EDGE_LOOP ( 'NONE', ( #246, #203, #187, #149 ) ) ;
#201 = CARTESIAN_POINT ( 'NONE',  ( -16.00000000000000000, 0.000000000000000000, 10.00000000000000000 ) ) ;
#202 = ADVANCED_FACE ( 'NONE', ( #177 ), #78, .T. ) ;
#203 = ORIENTED_EDGE ( 'NONE', *, *, #167, .T. ) ;
#204 = ORIENTED_EDGE ( 'NONE', *, *, #139, .F. ) ;
#205 = CARTESIAN_POINT ( 'NONE',  ( 0.000000000000000000, 0.000000000000000000, 10.00000000000000000 ) ) ;
#206 = DATE_AND_TIME ( #145, #192 ) ;
#207 = ORIENTED_EDGE ( 'NONE', *, *, #216, .F. ) ;
#208 = DIRECTION ( 'NONE',  ( 1.000000000000000000, 0.000000000000000000, -0.000000000000000000 ) ) ;
#209 = VERTEX_POINT ( 'NONE', #50 ) ;
#210 = CARTESIAN_POINT ( 'NONE',  ( -12.50000000000000000, 0.000000000000000000, 315.0000000000000000 ) ) ;
#211 = CARTESIAN_POINT ( 'NONE',  ( 0.000000000000000000, 0.000000000000000000, 315.0000000000000000 ) ) ;
#212 = CARTESIAN_POINT ( 'NONE',  ( 0.000000000000000000, 0.000000000000000000, 0.000000000000000000 ) ) ;
#213 = CALENDAR_DATE ( 2023, 13, 2 ) ;
#214 = AXIS2_PLACEMENT_3D ( 'NONE', #53, #228, #208 ) ;
#215 = VERTEX_POINT ( 'NONE', #198 ) ;
#216 = EDGE_CURVE ( 'NONE', #215, #238, #10, .T. ) ;
#217 = EDGE_LOOP ( 'NONE', ( #142, #28 ) ) ;
#218 = PERSON_AND_ORGANIZATION ( #239, #169 ) ;
#219 = PRODUCT_DEFINITION_SHAPE ( 'NONE', 'NONE',  #40 ) ;
#220 = EDGE_CURVE ( 'NONE', #238, #215, #179, .T. ) ;
#221 = ORIENTED_EDGE ( 'NONE', *, *, #62, .T. ) ;
#222 = AXIS2_PLACEMENT_3D ( 'NONE', #165, #109, #131 ) ;
#223 = CC_DESIGN_APPROVAL ( #70, ( #180 ) ) ;
#224 = LINE ( 'NONE', #201, #83 ) ;
#225 = CARTESIAN_POINT ( 'NONE',  ( 0.000000000000000000, 0.000000000000000000, 315.0000000000000000 ) ) ;
#226 = APPROVAL ( #101, 'NEURÈENÝ' ) ;
#227 = CARTESIAN_POINT ( 'NONE',  ( 16.00000000000000000, 1.959434878635765131E-15, 10.00000000000000000 ) ) ;
#228 = DIRECTION ( 'NONE',  ( 0.000000000000000000, 0.000000000000000000, 1.000000000000000000 ) ) ;
#229 = DIRECTION ( 'NONE',  ( 0.000000000000000000, 0.000000000000000000, 1.000000000000000000 ) ) ;
#230 = EDGE_LOOP ( 'NONE', ( #48, #146, #99, #197 ) ) ;
#231 = VECTOR ( 'NONE', #92, 1000.000000000000000 ) ;
#232 = DATE_TIME_ROLE ( 'creation_date' ) ;
#233 = EDGE_LOOP ( 'NONE', ( #68, #204 ) ) ;
#234 = DIRECTION ( 'NONE',  ( 0.000000000000000000, 0.000000000000000000, 1.000000000000000000 ) ) ;
#235 = CARTESIAN_POINT ( 'NONE',  ( 0.000000000000000000, 0.000000000000000000, 10.00000000000000000 ) ) ;
#236 = DATE_AND_TIME ( #76, #100 ) ;
#237 = CARTESIAN_POINT ( 'NONE',  ( 0.000000000000000000, 0.000000000000000000, 10.00000000000000000 ) ) ;
#238 = VERTEX_POINT ( 'NONE', #114 ) ;
#239 = PERSON ( 'NEURÈENÝ', 'NEURÈENÝ', 'NEURÈENÝ', ('NEURÈENÝ'), ('NEURÈENÝ'), ('NEURÈENÝ') ) ;
#240 = ORIENTED_EDGE ( 'NONE', *, *, #176, .T. ) ;
#241 = AXIS2_PLACEMENT_3D ( 'NONE', #148, #188, #35 ) ;
#242 = ADVANCED_FACE ( 'NONE', ( #30 ), #186, .T. ) ;
#243 = ORIENTED_EDGE ( 'NONE', *, *, #216, .T. ) ;
#244 = DIRECTION ( 'NONE',  ( -1.000000000000000000, 0.000000000000000000, 0.000000000000000000 ) ) ;
#245 = ORIENTED_EDGE ( 'NONE', *, *, #64, .T. ) ;
#246 = ORIENTED_EDGE ( 'NONE', *, *, #220, .F. ) ;
#247 = LOCAL_TIME ( 8, 47, 37.00000000000000000, #59 ) ;
#248 = PERSON_AND_ORGANIZATION ( #239, #169 ) ;
#249 = ORIENTED_EDGE ( 'NONE', *, *, #220, .T. ) ;
#250 = DIRECTION ( 'NONE',  ( 0.000000000000000000, 0.000000000000000000, 1.000000000000000000 ) ) ;
#251 = PLANE ( 'NONE',  #57 ) ;
#252 = ORIENTED_EDGE ( 'NONE', *, *, #171, .T. ) ;
#253 = AXIS2_PLACEMENT_3D ( 'NONE', #205, #191, #93 ) ;
#254 = APPROVAL_PERSON_ORGANIZATION ( #97, #70, #159 ) ;
#255 = ADVANCED_FACE ( 'NONE', ( #91 ), #69, .F. ) ;
ENDSEC;
END-ISO-10303-21;
