ISO-10303-21;
HEADER;
FILE_DESCRIPTION (( 'STEP AP203' ),
    '1' );
FILE_NAME ('4909.STEP',
    '2023-02-13T09:16:09',
    ( '' ),
    ( '' ),
    'SwSTEP 2.0',
    'SolidWorks 2019',
    '' );
FILE_SCHEMA (( 'CONFIG_CONTROL_DESIGN' ));
ENDSEC;

DATA;
#1 = DIRECTION ( 'NONE',  ( 0.000000000000000000, 0.000000000000000000, 1.000000000000000000 ) ) ;
#2 = VECTOR ( 'NONE', #88, 1000.000000000000000 ) ;
#3 = CALENDAR_DATE ( 2023, 13, 2 ) ;
#4 = ORIENTED_EDGE ( 'NONE', *, *, #23, .F. ) ;
#5 = DIRECTION ( 'NONE',  ( -0.000000000000000000, -0.000000000000000000, -1.000000000000000000 ) ) ;
#6 = CIRCLE ( 'NONE', #143, 11.00000000000000000 ) ;
#7 = CARTESIAN_POINT ( 'NONE',  ( 0.000000000000000000, 0.000000000000000000, 7.000000000000000000 ) ) ;
#8 = ORIENTED_EDGE ( 'NONE', *, *, #202, .T. ) ;
#9 =( NAMED_UNIT ( * ) PLANE_ANGLE_UNIT ( ) SI_UNIT ( $, .RADIAN. ) );
#10 = VERTEX_POINT ( 'NONE', #71 ) ;
#11 = AXIS2_PLACEMENT_3D ( 'NONE', #135, #1, #237 ) ;
#12 = LOCAL_TIME ( 10, 16, 9.000000000000000000, #77 ) ;
#13 = ORIENTED_EDGE ( 'NONE', *, *, #124, .F. ) ;
#14 = PRODUCT_DEFINITION ( 'NEZNÁMÝ', '', #215, #105 ) ;
#15 = EDGE_CURVE ( 'NONE', #197, #53, #142, .T. ) ;
#16 = LOCAL_TIME ( 10, 16, 9.000000000000000000, #133 ) ;
#17 = DIRECTION ( 'NONE',  ( 1.000000000000000000, 0.000000000000000000, 0.000000000000000000 ) ) ;
#18 = PRODUCT ( '4909', '4909', '', ( #34 ) ) ;
#19 = APPROVAL_DATE_TIME ( #185, #101 ) ;
#20 = CARTESIAN_POINT ( 'NONE',  ( -7.000000000000000000, 0.000000000000000000, 400.0000000000000000 ) ) ;
#21 = CIRCLE ( 'NONE', #98, 11.00000000000000000 ) ;
#22 = CARTESIAN_POINT ( 'NONE',  ( 0.000000000000000000, 0.000000000000000000, 400.0000000000000000 ) ) ;
#23 = EDGE_CURVE ( 'NONE', #53, #100, #21, .T. ) ;
#24 = PERSON_AND_ORGANIZATION_ROLE ( 'classification_officer' ) ;
#25 = CARTESIAN_POINT ( 'NONE',  ( 11.00000000000000000, 1.347111479062088405E-15, 7.000000000000000000 ) ) ;
#26 = CARTESIAN_POINT ( 'NONE',  ( 0.000000000000000000, 0.000000000000000000, 7.000000000000000000 ) ) ;
#27 = ORIENTED_EDGE ( 'NONE', *, *, #116, .T. ) ;
#28 = DIRECTION ( 'NONE',  ( 0.000000000000000000, 0.000000000000000000, 1.000000000000000000 ) ) ;
#29 = CIRCLE ( 'NONE', #35, 7.000000000000000000 ) ;
#30 = DIRECTION ( 'NONE',  ( 1.000000000000000000, 0.000000000000000000, 0.000000000000000000 ) ) ;
#31 = FACE_OUTER_BOUND ( 'NONE', #175, .T. ) ;
#32 = VERTEX_POINT ( 'NONE', #20 ) ;
#33 = AXIS2_PLACEMENT_3D ( 'NONE', #22, #214, #227 ) ;
#34 = MECHANICAL_CONTEXT ( 'NONE', #119, 'mechanical' ) ;
#35 = AXIS2_PLACEMENT_3D ( 'NONE', #7, #121, #30 ) ;
#36 = PERSON_AND_ORGANIZATION ( #106, #55 ) ;
#37 = LOCAL_TIME ( 10, 16, 9.000000000000000000, #83 ) ;
#38 = APPROVAL_ROLE ( '' ) ;
#39 = AXIS2_PLACEMENT_3D ( 'NONE', #245, #193, #179 ) ;
#40 =( GEOMETRIC_REPRESENTATION_CONTEXT ( 3 ) GLOBAL_UNCERTAINTY_ASSIGNED_CONTEXT ( ( #246 ) ) GLOBAL_UNIT_ASSIGNED_CONTEXT ( ( #241, #9, #244 ) ) REPRESENTATION_CONTEXT ( 'NONE', 'WORKASPACE' ) );
#41 = PERSON_AND_ORGANIZATION ( #106, #55 ) ;
#42 = DIRECTION ( 'NONE',  ( 1.000000000000000000, 0.000000000000000000, -0.000000000000000000 ) ) ;
#43 = CALENDAR_DATE ( 2023, 13, 2 ) ;
#44 = DIRECTION ( 'NONE',  ( 0.000000000000000000, 0.000000000000000000, 1.000000000000000000 ) ) ;
#45 = SECURITY_CLASSIFICATION_LEVEL ( 'unclassified' ) ;
#46 = ORIENTED_EDGE ( 'NONE', *, *, #209, .T. ) ;
#47 = DIRECTION ( 'NONE',  ( 1.000000000000000000, 0.000000000000000000, 0.000000000000000000 ) ) ;
#48 = PERSON_AND_ORGANIZATION_ROLE ( 'design_supplier' ) ;
#49 = CARTESIAN_POINT ( 'NONE',  ( -11.00000000000000000, 0.000000000000000000, 7.000000000000000000 ) ) ;
#50 = ADVANCED_FACE ( 'NONE', ( #172 ), #92, .T. ) ;
#51 = CARTESIAN_POINT ( 'NONE',  ( 7.000000000000000000, 8.572527594031473190E-16, 400.0000000000000000 ) ) ;
#52 = CARTESIAN_POINT ( 'NONE',  ( -7.000000000000000000, 0.000000000000000000, 7.000000000000000000 ) ) ;
#53 = VERTEX_POINT ( 'NONE', #251 ) ;
#54 = APPLICATION_PROTOCOL_DEFINITION ( 'international standard', 'config_control_design', 1994, #148 ) ;
#55 = ORGANIZATION ( 'NEURÈENÝ', 'NEURÈENÝ', '' ) ;
#56 = ADVANCED_BREP_SHAPE_REPRESENTATION ( '4909', ( #231, #248 ), #40 ) ;
#57 = ADVANCED_FACE ( 'NONE', ( #234 ), #189, .T. ) ;
#58 = CARTESIAN_POINT ( 'NONE',  ( 0.000000000000000000, 0.000000000000000000, 0.000000000000000000 ) ) ;
#59 = CIRCLE ( 'NONE', #130, 7.000000000000000000 ) ;
#60 = APPROVAL_PERSON_ORGANIZATION ( #41, #101, #110 ) ;
#61 = PERSON_AND_ORGANIZATION_ROLE ( 'creator' ) ;
#62 = DIRECTION ( 'NONE',  ( -0.000000000000000000, -0.000000000000000000, -1.000000000000000000 ) ) ;
#63 = AXIS2_PLACEMENT_3D ( 'NONE', #188, #230, #47 ) ;
#64 = FACE_OUTER_BOUND ( 'NONE', #94, .T. ) ;
#65 = SHAPE_DEFINITION_REPRESENTATION ( #187, #56 ) ;
#66 = ORIENTED_EDGE ( 'NONE', *, *, #202, .F. ) ;
#67 = CARTESIAN_POINT ( 'NONE',  ( 0.000000000000000000, 0.000000000000000000, 7.000000000000000000 ) ) ;
#68 = APPROVAL_STATUS ( 'not_yet_approved' ) ;
#69 = CYLINDRICAL_SURFACE ( 'NONE', #39, 11.00000000000000000 ) ;
#70 = DIRECTION ( 'NONE',  ( 0.000000000000000000, 0.000000000000000000, 1.000000000000000000 ) ) ;
#71 = CARTESIAN_POINT ( 'NONE',  ( 7.000000000000000000, 8.572527594031473190E-16, 7.000000000000000000 ) ) ;
#72 = CARTESIAN_POINT ( 'NONE',  ( 7.000000000000000000, 8.572527594031473190E-16, 400.0000000000000000 ) ) ;
#73 = DATE_AND_TIME ( #125, #177 ) ;
#74 = PERSON_AND_ORGANIZATION ( #106, #55 ) ;
#75 = PLANE ( 'NONE',  #213 ) ;
#76 = EDGE_CURVE ( 'NONE', #243, #100, #249, .T. ) ;
#77 = COORDINATED_UNIVERSAL_TIME_OFFSET ( 1, 0, .AHEAD. ) ;
#78 = CARTESIAN_POINT ( 'NONE',  ( -11.00000000000000000, 0.000000000000000000, 7.000000000000000000 ) ) ;
#79 = CYLINDRICAL_SURFACE ( 'NONE', #146, 7.000000000000000000 ) ;
#80 = AXIS2_PLACEMENT_3D ( 'NONE', #67, #70, #176 ) ;
#81 = ORIENTED_EDGE ( 'NONE', *, *, #180, .F. ) ;
#82 = DIRECTION ( 'NONE',  ( 1.000000000000000000, 0.000000000000000000, 0.000000000000000000 ) ) ;
#83 = COORDINATED_UNIVERSAL_TIME_OFFSET ( 1, 0, .AHEAD. ) ;
#84 = CARTESIAN_POINT ( 'NONE',  ( 0.000000000000000000, 0.000000000000000000, 7.000000000000000000 ) ) ;
#85 = ORIENTED_EDGE ( 'NONE', *, *, #150, .F. ) ;
#86 = CC_DESIGN_PERSON_AND_ORGANIZATION_ASSIGNMENT ( #120, #24, ( #139 ) ) ;
#87 = CLOSED_SHELL ( 'NONE', ( #50, #163, #217, #128, #112, #96, #57 ) ) ;
#88 = DIRECTION ( 'NONE',  ( -0.000000000000000000, -0.000000000000000000, -1.000000000000000000 ) ) ;
#89 = VERTEX_POINT ( 'NONE', #72 ) ;
#90 = CC_DESIGN_DATE_AND_TIME_ASSIGNMENT ( #73, #207, ( #14 ) ) ;
#91 = CC_DESIGN_APPROVAL ( #137, ( #14 ) ) ;
#92 = CYLINDRICAL_SURFACE ( 'NONE', #159, 7.000000000000000000 ) ;
#93 = PERSON_AND_ORGANIZATION ( #106, #55 ) ;
#94 = EDGE_LOOP ( 'NONE', ( #216, #13, #194, #46 ) ) ;
#95 = DIRECTION ( 'NONE',  ( -1.000000000000000000, 0.000000000000000000, 0.000000000000000000 ) ) ;
#96 = ADVANCED_FACE ( 'NONE', ( #253 ), #79, .T. ) ;
#97 = EDGE_LOOP ( 'NONE', ( #85, #134, #102, #8 ) ) ;
#98 = AXIS2_PLACEMENT_3D ( 'NONE', #212, #129, #17 ) ;
#99 = DIRECTION ( 'NONE',  ( 1.000000000000000000, 0.000000000000000000, 0.000000000000000000 ) ) ;
#100 = VERTEX_POINT ( 'NONE', #152 ) ;
#101 = APPROVAL ( #204, 'NEURÈENÝ' ) ;
#102 = ORIENTED_EDGE ( 'NONE', *, *, #180, .T. ) ;
#103 = PLANE ( 'NONE',  #80 ) ;
#104 = ORIENTED_EDGE ( 'NONE', *, *, #15, .T. ) ;
#105 = DESIGN_CONTEXT ( 'detailed design', #148, 'design' ) ;
#106 = PERSON ( 'NEURÈENÝ', 'NEURÈENÝ', 'NEURÈENÝ', ('NEURÈENÝ'), ('NEURÈENÝ'), ('NEURÈENÝ') ) ;
#107 = CC_DESIGN_PERSON_AND_ORGANIZATION_ASSIGNMENT ( #147, #61, ( #14 ) ) ;
#108 = CARTESIAN_POINT ( 'NONE',  ( 0.000000000000000000, 0.000000000000000000, 400.0000000000000000 ) ) ;
#109 = CIRCLE ( 'NONE', #196, 11.00000000000000000 ) ;
#110 = APPROVAL_ROLE ( '' ) ;
#111 = AXIS2_PLACEMENT_3D ( 'NONE', #26, #174, #95 ) ;
#112 = ADVANCED_FACE ( 'NONE', ( #228 ), #75, .F. ) ;
#113 = PERSON_AND_ORGANIZATION ( #106, #55 ) ;
#114 = CYLINDRICAL_SURFACE ( 'NONE', #111, 11.00000000000000000 ) ;
#115 = CARTESIAN_POINT ( 'NONE',  ( 0.000000000000000000, 0.000000000000000000, 7.000000000000000000 ) ) ;
#116 = EDGE_CURVE ( 'NONE', #32, #89, #220, .T. ) ;
#117 = LOCAL_TIME ( 10, 16, 9.000000000000000000, #225 ) ;
#118 = DIRECTION ( 'NONE',  ( 0.000000000000000000, 0.000000000000000000, 1.000000000000000000 ) ) ;
#119 = APPLICATION_CONTEXT ( 'configuration controlled 3d designs of mechanical parts and assemblies' ) ;
#120 = PERSON_AND_ORGANIZATION ( #106, #55 ) ;
#121 = DIRECTION ( 'NONE',  ( 0.000000000000000000, 0.000000000000000000, 1.000000000000000000 ) ) ;
#122 = CARTESIAN_POINT ( 'NONE',  ( 11.00000000000000000, 1.347111479062088405E-15, 7.000000000000000000 ) ) ;
#123 = CARTESIAN_POINT ( 'NONE',  ( 0.000000000000000000, 0.000000000000000000, 0.000000000000000000 ) ) ;
#124 = EDGE_CURVE ( 'NONE', #243, #197, #201, .T. ) ;
#125 = CALENDAR_DATE ( 2023, 13, 2 ) ;
#126 = COORDINATED_UNIVERSAL_TIME_OFFSET ( 1, 0, .AHEAD. ) ;
#127 = DIRECTION ( 'NONE',  ( 0.000000000000000000, 0.000000000000000000, 1.000000000000000000 ) ) ;
#128 = ADVANCED_FACE ( 'NONE', ( #132, #31 ), #103, .T. ) ;
#129 = DIRECTION ( 'NONE',  ( 0.000000000000000000, 0.000000000000000000, 1.000000000000000000 ) ) ;
#130 = AXIS2_PLACEMENT_3D ( 'NONE', #161, #44, #82 ) ;
#131 = ORIENTED_EDGE ( 'NONE', *, *, #226, .T. ) ;
#132 = FACE_BOUND ( 'NONE', #199, .T. ) ;
#133 = COORDINATED_UNIVERSAL_TIME_OFFSET ( 1, 0, .AHEAD. ) ;
#134 = ORIENTED_EDGE ( 'NONE', *, *, #116, .F. ) ;
#135 = CARTESIAN_POINT ( 'NONE',  ( 0.000000000000000000, 0.000000000000000000, 400.0000000000000000 ) ) ;
#136 = LINE ( 'NONE', #51, #224 ) ;
#137 = APPROVAL ( #211, 'NEURÈENÝ' ) ;
#138 = EDGE_LOOP ( 'NONE', ( #236, #4 ) ) ;
#139 = SECURITY_CLASSIFICATION ( '', '', #45 ) ;
#140 = ORIENTED_EDGE ( 'NONE', *, *, #124, .T. ) ;
#141 = CARTESIAN_POINT ( 'NONE',  ( -7.000000000000000000, 0.000000000000000000, 400.0000000000000000 ) ) ;
#142 = LINE ( 'NONE', #122, #183 ) ;
#143 = AXIS2_PLACEMENT_3D ( 'NONE', #115, #28, #99 ) ;
#144 = DIRECTION ( 'NONE',  ( 0.000000000000000000, 0.000000000000000000, 1.000000000000000000 ) ) ;
#145 = APPROVAL ( #68, 'NEURÈENÝ' ) ;
#146 = AXIS2_PLACEMENT_3D ( 'NONE', #108, #208, #149 ) ;
#147 = PERSON_AND_ORGANIZATION ( #106, #55 ) ;
#148 = APPLICATION_CONTEXT ( 'configuration controlled 3d designs of mechanical parts and assemblies' ) ;
#149 = DIRECTION ( 'NONE',  ( -1.000000000000000000, 0.000000000000000000, 0.000000000000000000 ) ) ;
#150 = EDGE_CURVE ( 'NONE', #89, #10, #136, .T. ) ;
#151 = DATE_AND_TIME ( #43, #12 ) ;
#152 = CARTESIAN_POINT ( 'NONE',  ( -11.00000000000000000, 0.000000000000000000, 0.000000000000000000 ) ) ;
#153 = VERTEX_POINT ( 'NONE', #52 ) ;
#154 = CARTESIAN_POINT ( 'NONE',  ( 0.000000000000000000, 0.000000000000000000, 0.000000000000000000 ) ) ;
#155 = ORIENTED_EDGE ( 'NONE', *, *, #252, .T. ) ;
#156 = APPROVAL_ROLE ( '' ) ;
#157 = CC_DESIGN_PERSON_AND_ORGANIZATION_ASSIGNMENT ( #36, #182, ( #18 ) ) ;
#158 = EDGE_LOOP ( 'NONE', ( #27, #255 ) ) ;
#159 = AXIS2_PLACEMENT_3D ( 'NONE', #210, #169, #167 ) ;
#160 = ORIENTED_EDGE ( 'NONE', *, *, #150, .T. ) ;
#161 = CARTESIAN_POINT ( 'NONE',  ( 0.000000000000000000, 0.000000000000000000, 7.000000000000000000 ) ) ;
#162 = EDGE_LOOP ( 'NONE', ( #178, #104, #247, #181 ) ) ;
#163 = ADVANCED_FACE ( 'NONE', ( #219 ), #69, .T. ) ;
#164 = CC_DESIGN_APPROVAL ( #145, ( #139 ) ) ;
#165 = CC_DESIGN_PERSON_AND_ORGANIZATION_ASSIGNMENT ( #93, #250, ( #215 ) ) ;
#166 = APPLICATION_PROTOCOL_DEFINITION ( 'international standard', 'config_control_design', 1994, #119 ) ;
#167 = DIRECTION ( 'NONE',  ( -1.000000000000000000, 0.000000000000000000, 0.000000000000000000 ) ) ;
#168 = DIRECTION ( 'NONE',  ( -0.000000000000000000, -0.000000000000000000, -1.000000000000000000 ) ) ;
#169 = DIRECTION ( 'NONE',  ( -0.000000000000000000, -0.000000000000000000, -1.000000000000000000 ) ) ;
#170 = PRODUCT_RELATED_PRODUCT_CATEGORY ( 'detail', '', ( #18 ) ) ;
#171 = APPROVAL_PERSON_ORGANIZATION ( #113, #145, #156 ) ;
#172 = FACE_OUTER_BOUND ( 'NONE', #191, .T. ) ;
#173 = DATE_TIME_ROLE ( 'classification_date' ) ;
#174 = DIRECTION ( 'NONE',  ( -0.000000000000000000, -0.000000000000000000, -1.000000000000000000 ) ) ;
#175 = EDGE_LOOP ( 'NONE', ( #140, #155 ) ) ;
#176 = DIRECTION ( 'NONE',  ( 1.000000000000000000, 0.000000000000000000, -0.000000000000000000 ) ) ;
#177 = LOCAL_TIME ( 10, 16, 9.000000000000000000, #126 ) ;
#178 = ORIENTED_EDGE ( 'NONE', *, *, #252, .F. ) ;
#179 = DIRECTION ( 'NONE',  ( -1.000000000000000000, 0.000000000000000000, 0.000000000000000000 ) ) ;
#180 = EDGE_CURVE ( 'NONE', #32, #153, #195, .T. ) ;
#181 = ORIENTED_EDGE ( 'NONE', *, *, #76, .F. ) ;
#182 = PERSON_AND_ORGANIZATION_ROLE ( 'design_owner' ) ;
#183 = VECTOR ( 'NONE', #168, 1000.000000000000000 ) ;
#184 = CC_DESIGN_APPROVAL ( #101, ( #215 ) ) ;
#185 = DATE_AND_TIME ( #186, #117 ) ;
#186 = CALENDAR_DATE ( 2023, 13, 2 ) ;
#187 = PRODUCT_DEFINITION_SHAPE ( 'NONE', 'NONE',  #14 ) ;
#188 = CARTESIAN_POINT ( 'NONE',  ( 0.000000000000000000, 0.000000000000000000, 400.0000000000000000 ) ) ;
#189 = PLANE ( 'NONE',  #33 ) ;
#190 = CALENDAR_DATE ( 2023, 13, 2 ) ;
#191 = EDGE_LOOP ( 'NONE', ( #239, #160, #131, #81 ) ) ;
#192 = DIRECTION ( 'NONE',  ( 1.000000000000000000, 0.000000000000000000, 0.000000000000000000 ) ) ;
#193 = DIRECTION ( 'NONE',  ( -0.000000000000000000, -0.000000000000000000, -1.000000000000000000 ) ) ;
#194 = ORIENTED_EDGE ( 'NONE', *, *, #76, .T. ) ;
#195 = LINE ( 'NONE', #141, #2 ) ;
#196 = AXIS2_PLACEMENT_3D ( 'NONE', #154, #118, #218 ) ;
#197 = VERTEX_POINT ( 'NONE', #25 ) ;
#198 = CC_DESIGN_PERSON_AND_ORGANIZATION_ASSIGNMENT ( #74, #48, ( #215 ) ) ;
#199 = EDGE_LOOP ( 'NONE', ( #66, #223 ) ) ;
#200 = DIRECTION ( 'NONE',  ( 1.000000000000000000, 0.000000000000000000, 0.000000000000000000 ) ) ;
#201 = CIRCLE ( 'NONE', #235, 11.00000000000000000 ) ;
#202 = EDGE_CURVE ( 'NONE', #153, #10, #59, .T. ) ;
#203 = PERSON_AND_ORGANIZATION ( #106, #55 ) ;
#204 = APPROVAL_STATUS ( 'not_yet_approved' ) ;
#205 = CC_DESIGN_SECURITY_CLASSIFICATION ( #139, ( #215 ) ) ;
#206 = CC_DESIGN_DATE_AND_TIME_ASSIGNMENT ( #233, #173, ( #139 ) ) ;
#207 = DATE_TIME_ROLE ( 'creation_date' ) ;
#208 = DIRECTION ( 'NONE',  ( -0.000000000000000000, -0.000000000000000000, -1.000000000000000000 ) ) ;
#209 = EDGE_CURVE ( 'NONE', #100, #53, #109, .T. ) ;
#210 = CARTESIAN_POINT ( 'NONE',  ( 0.000000000000000000, 0.000000000000000000, 400.0000000000000000 ) ) ;
#211 = APPROVAL_STATUS ( 'not_yet_approved' ) ;
#212 = CARTESIAN_POINT ( 'NONE',  ( 0.000000000000000000, 0.000000000000000000, 0.000000000000000000 ) ) ;
#213 = AXIS2_PLACEMENT_3D ( 'NONE', #58, #127, #42 ) ;
#214 = DIRECTION ( 'NONE',  ( 0.000000000000000000, 0.000000000000000000, 1.000000000000000000 ) ) ;
#215 = PRODUCT_DEFINITION_FORMATION_WITH_SPECIFIED_SOURCE ( 'LIBOVOLNÝ', '', #18, .NOT_KNOWN. ) ;
#216 = ORIENTED_EDGE ( 'NONE', *, *, #15, .F. ) ;
#217 = ADVANCED_FACE ( 'NONE', ( #64 ), #114, .T. ) ;
#218 = DIRECTION ( 'NONE',  ( 1.000000000000000000, 0.000000000000000000, 0.000000000000000000 ) ) ;
#219 = FACE_OUTER_BOUND ( 'NONE', #162, .T. ) ;
#220 = CIRCLE ( 'NONE', #63, 7.000000000000000000 ) ;
#221 = APPROVAL_PERSON_ORGANIZATION ( #203, #137, #38 ) ;
#222 = DATE_AND_TIME ( #190, #16 ) ;
#223 = ORIENTED_EDGE ( 'NONE', *, *, #226, .F. ) ;
#224 = VECTOR ( 'NONE', #5, 1000.000000000000000 ) ;
#225 = COORDINATED_UNIVERSAL_TIME_OFFSET ( 1, 0, .AHEAD. ) ;
#226 = EDGE_CURVE ( 'NONE', #10, #153, #29, .T. ) ;
#227 = DIRECTION ( 'NONE',  ( 1.000000000000000000, 0.000000000000000000, -0.000000000000000000 ) ) ;
#228 = FACE_OUTER_BOUND ( 'NONE', #138, .T. ) ;
#229 = VECTOR ( 'NONE', #62, 1000.000000000000000 ) ;
#230 = DIRECTION ( 'NONE',  ( 0.000000000000000000, 0.000000000000000000, 1.000000000000000000 ) ) ;
#231 = MANIFOLD_SOLID_BREP ( 'Pøidat vysunutím3', #87 ) ;
#232 = APPROVAL_DATE_TIME ( #151, #137 ) ;
#233 = DATE_AND_TIME ( #3, #37 ) ;
#234 = FACE_OUTER_BOUND ( 'NONE', #158, .T. ) ;
#235 = AXIS2_PLACEMENT_3D ( 'NONE', #84, #240, #192 ) ;
#236 = ORIENTED_EDGE ( 'NONE', *, *, #209, .F. ) ;
#237 = DIRECTION ( 'NONE',  ( 1.000000000000000000, 0.000000000000000000, 0.000000000000000000 ) ) ;
#238 = CIRCLE ( 'NONE', #11, 7.000000000000000000 ) ;
#239 = ORIENTED_EDGE ( 'NONE', *, *, #242, .F. ) ;
#240 = DIRECTION ( 'NONE',  ( 0.000000000000000000, 0.000000000000000000, 1.000000000000000000 ) ) ;
#241 =( LENGTH_UNIT ( ) NAMED_UNIT ( * ) SI_UNIT ( .MILLI., .METRE. ) );
#242 = EDGE_CURVE ( 'NONE', #89, #32, #238, .T. ) ;
#243 = VERTEX_POINT ( 'NONE', #49 ) ;
#244 =( NAMED_UNIT ( * ) SI_UNIT ( $, .STERADIAN. ) SOLID_ANGLE_UNIT ( ) );
#245 = CARTESIAN_POINT ( 'NONE',  ( 0.000000000000000000, 0.000000000000000000, 7.000000000000000000 ) ) ;
#246 = UNCERTAINTY_MEASURE_WITH_UNIT (LENGTH_MEASURE( 1.000000000000000082E-05 ), #241, 'distance_accuracy_value', 'NONE');
#247 = ORIENTED_EDGE ( 'NONE', *, *, #23, .T. ) ;
#248 = AXIS2_PLACEMENT_3D ( 'NONE', #123, #144, #200 ) ;
#249 = LINE ( 'NONE', #78, #229 ) ;
#250 = PERSON_AND_ORGANIZATION_ROLE ( 'creator' ) ;
#251 = CARTESIAN_POINT ( 'NONE',  ( 11.00000000000000000, 1.347111479062088405E-15, 0.000000000000000000 ) ) ;
#252 = EDGE_CURVE ( 'NONE', #197, #243, #6, .T. ) ;
#253 = FACE_OUTER_BOUND ( 'NONE', #97, .T. ) ;
#254 = APPROVAL_DATE_TIME ( #222, #145 ) ;
#255 = ORIENTED_EDGE ( 'NONE', *, *, #242, .T. ) ;
ENDSEC;
END-ISO-10303-21;
