ISO-10303-21;
HEADER;
FILE_DESCRIPTION (( 'STEP AP203' ),
    '1' );
FILE_NAME ('6d76.STEP',
    '2023-02-13T07:50:18',
    ( '' ),
    ( '' ),
    'SwSTEP 2.0',
    'SolidWorks 2019',
    '' );
FILE_SCHEMA (( 'CONFIG_CONTROL_DESIGN' ));
ENDSEC;

DATA;
#1 = EDGE_CURVE ( 'NONE', #87, #92, #21, .T. ) ;
#2 = AXIS2_PLACEMENT_3D ( 'NONE', #214, #123, #199 ) ;
#3 = APPROVAL_STATUS ( 'not_yet_approved' ) ;
#4 = PLANE ( 'NONE',  #231 ) ;
#5 = APPLICATION_PROTOCOL_DEFINITION ( 'international standard', 'config_control_design', 1994, #229 ) ;
#6 = DIRECTION ( 'NONE',  ( 1.000000000000000000, 0.000000000000000000, -0.000000000000000000 ) ) ;
#7 = DATE_AND_TIME ( #40, #38 ) ;
#8 = CARTESIAN_POINT ( 'NONE',  ( 0.000000000000000000, 0.000000000000000000, 0.000000000000000000 ) ) ;
#9 = AXIS2_PLACEMENT_3D ( 'NONE', #91, #162, #244 ) ;
#10 = EDGE_CURVE ( 'NONE', #26, #190, #206, .T. ) ;
#11 = DIRECTION ( 'NONE',  ( -0.000000000000000000, -0.000000000000000000, -1.000000000000000000 ) ) ;
#12 = CARTESIAN_POINT ( 'NONE',  ( -9.000000000000000000, 0.000000000000000000, 315.0000000000000000 ) ) ;
#13 = DIRECTION ( 'NONE',  ( 0.000000000000000000, 0.000000000000000000, 1.000000000000000000 ) ) ;
#14 = CARTESIAN_POINT ( 'NONE',  ( 0.000000000000000000, 0.000000000000000000, 7.000000000000000000 ) ) ;
#15 = CIRCLE ( 'NONE', #132, 9.000000000000000000 ) ;
#16 = CALENDAR_DATE ( 2023, 13, 2 ) ;
#17 = PRODUCT_DEFINITION_SHAPE ( 'NONE', 'NONE',  #73 ) ;
#18 = DATE_AND_TIME ( #16, #31 ) ;
#19 = CC_DESIGN_PERSON_AND_ORGANIZATION_ASSIGNMENT ( #86, #198, ( #164 ) ) ;
#20 = AXIS2_PLACEMENT_3D ( 'NONE', #140, #160, #30 ) ;
#21 = CIRCLE ( 'NONE', #180, 9.000000000000000000 ) ;
#22 = ORIENTED_EDGE ( 'NONE', *, *, #116, .F. ) ;
#23 = APPROVAL_STATUS ( 'not_yet_approved' ) ;
#24 = APPROVAL ( #3, 'NEURÈENÝ' ) ;
#25 = AXIS2_PLACEMENT_3D ( 'NONE', #205, #185, #207 ) ;
#26 = VERTEX_POINT ( 'NONE', #200 ) ;
#27 = CALENDAR_DATE ( 2023, 13, 2 ) ;
#28 = ORIENTED_EDGE ( 'NONE', *, *, #78, .T. ) ;
#29 = FACE_OUTER_BOUND ( 'NONE', #137, .T. ) ;
#30 = DIRECTION ( 'NONE',  ( -1.000000000000000000, 0.000000000000000000, 0.000000000000000000 ) ) ;
#31 = LOCAL_TIME ( 8, 50, 18.00000000000000000, #145 ) ;
#32 = ORIENTED_EDGE ( 'NONE', *, *, #126, .F. ) ;
#33 = DIRECTION ( 'NONE',  ( 1.000000000000000000, 0.000000000000000000, 0.000000000000000000 ) ) ;
#34 = APPROVAL ( #37, 'NEURÈENÝ' ) ;
#35 = AXIS2_PLACEMENT_3D ( 'NONE', #220, #143, #33 ) ;
#36 = ADVANCED_FACE ( 'NONE', ( #176 ), #43, .T. ) ;
#37 = APPROVAL_STATUS ( 'not_yet_approved' ) ;
#38 = LOCAL_TIME ( 8, 50, 18.00000000000000000, #215 ) ;
#39 = MECHANICAL_CONTEXT ( 'NONE', #188, 'mechanical' ) ;
#40 = CALENDAR_DATE ( 2023, 13, 2 ) ;
#41 = ORIENTED_EDGE ( 'NONE', *, *, #102, .T. ) ;
#42 = CC_DESIGN_APPROVAL ( #24, ( #73 ) ) ;
#43 = CYLINDRICAL_SURFACE ( 'NONE', #20, 12.00000000000000178 ) ;
#44 = APPROVAL_DATE_TIME ( #172, #249 ) ;
#45 = VECTOR ( 'NONE', #11, 1000.000000000000000 ) ;
#46 = CC_DESIGN_PERSON_AND_ORGANIZATION_ASSIGNMENT ( #95, #224, ( #168 ) ) ;
#47 = DIRECTION ( 'NONE',  ( 1.000000000000000000, 0.000000000000000000, 0.000000000000000000 ) ) ;
#48 = DIRECTION ( 'NONE',  ( 0.000000000000000000, 0.000000000000000000, 1.000000000000000000 ) ) ;
#49 = FACE_OUTER_BOUND ( 'NONE', #98, .T. ) ;
#50 =( GEOMETRIC_REPRESENTATION_CONTEXT ( 3 ) GLOBAL_UNCERTAINTY_ASSIGNED_CONTEXT ( ( #177 ) ) GLOBAL_UNIT_ASSIGNED_CONTEXT ( ( #216, #63, #235 ) ) REPRESENTATION_CONTEXT ( 'NONE', 'WORKASPACE' ) );
#51 = VECTOR ( 'NONE', #103, 1000.000000000000000 ) ;
#52 = CYLINDRICAL_SURFACE ( 'NONE', #9, 9.000000000000000000 ) ;
#53 = DIRECTION ( 'NONE',  ( -0.000000000000000000, -0.000000000000000000, -1.000000000000000000 ) ) ;
#54 = CC_DESIGN_PERSON_AND_ORGANIZATION_ASSIGNMENT ( #99, #158, ( #58 ) ) ;
#55 = COORDINATED_UNIVERSAL_TIME_OFFSET ( 1, 0, .AHEAD. ) ;
#56 = AXIS2_PLACEMENT_3D ( 'NONE', #125, #48, #90 ) ;
#57 = FACE_OUTER_BOUND ( 'NONE', #61, .T. ) ;
#58 = PRODUCT ( '6d76', '6d76', '', ( #39 ) ) ;
#59 = APPROVAL_PERSON_ORGANIZATION ( #80, #34, #115 ) ;
#60 = ORIENTED_EDGE ( 'NONE', *, *, #186, .F. ) ;
#61 = EDGE_LOOP ( 'NONE', ( #67, #89, #194, #243 ) ) ;
#62 = APPROVAL_ROLE ( '' ) ;
#63 =( NAMED_UNIT ( * ) PLANE_ANGLE_UNIT ( ) SI_UNIT ( $, .RADIAN. ) );
#64 = ORIENTED_EDGE ( 'NONE', *, *, #10, .T. ) ;
#65 = ORIENTED_EDGE ( 'NONE', *, *, #78, .F. ) ;
#66 = DIRECTION ( 'NONE',  ( 1.000000000000000000, 0.000000000000000000, -0.000000000000000000 ) ) ;
#67 = ORIENTED_EDGE ( 'NONE', *, *, #75, .F. ) ;
#68 = CC_DESIGN_PERSON_AND_ORGANIZATION_ASSIGNMENT ( #104, #119, ( #73 ) ) ;
#69 = EDGE_LOOP ( 'NONE', ( #148, #65 ) ) ;
#70 = DIRECTION ( 'NONE',  ( 0.000000000000000000, 0.000000000000000000, 1.000000000000000000 ) ) ;
#71 = DIRECTION ( 'NONE',  ( 0.000000000000000000, 0.000000000000000000, 1.000000000000000000 ) ) ;
#72 = LINE ( 'NONE', #106, #217 ) ;
#73 = PRODUCT_DEFINITION ( 'NEZNÁMÝ', '', #164, #131 ) ;
#74 = DATE_TIME_ROLE ( 'classification_date' ) ;
#75 = EDGE_CURVE ( 'NONE', #163, #85, #252, .T. ) ;
#76 = SHAPE_DEFINITION_REPRESENTATION ( #17, #225 ) ;
#77 = AXIS2_PLACEMENT_3D ( 'NONE', #8, #71, #6 ) ;
#78 = EDGE_CURVE ( 'NONE', #82, #107, #178, .T. ) ;
#79 = ORIENTED_EDGE ( 'NONE', *, *, #242, .T. ) ;
#80 = PERSON_AND_ORGANIZATION ( #124, #127 ) ;
#81 = CC_DESIGN_APPROVAL ( #249, ( #164 ) ) ;
#82 = VERTEX_POINT ( 'NONE', #245 ) ;
#83 = ADVANCED_FACE ( 'NONE', ( #128 ), #157, .F. ) ;
#84 = DIRECTION ( 'NONE',  ( 0.000000000000000000, 0.000000000000000000, 1.000000000000000000 ) ) ;
#85 = VERTEX_POINT ( 'NONE', #12 ) ;
#86 = PERSON_AND_ORGANIZATION ( #124, #127 ) ;
#87 = VERTEX_POINT ( 'NONE', #159 ) ;
#88 = AXIS2_PLACEMENT_3D ( 'NONE', #167, #250, #203 ) ;
#89 = ORIENTED_EDGE ( 'NONE', *, *, #116, .T. ) ;
#90 = DIRECTION ( 'NONE',  ( 1.000000000000000000, 0.000000000000000000, 0.000000000000000000 ) ) ;
#91 = CARTESIAN_POINT ( 'NONE',  ( 0.000000000000000000, 0.000000000000000000, 315.0000000000000000 ) ) ;
#92 = VERTEX_POINT ( 'NONE', #219 ) ;
#93 = DIRECTION ( 'NONE',  ( 1.000000000000000000, 0.000000000000000000, 0.000000000000000000 ) ) ;
#94 = DIRECTION ( 'NONE',  ( 1.000000000000000000, 0.000000000000000000, -0.000000000000000000 ) ) ;
#95 = PERSON_AND_ORGANIZATION ( #124, #127 ) ;
#96 = APPROVAL_DATE_TIME ( #251, #34 ) ;
#97 = AXIS2_PLACEMENT_3D ( 'NONE', #161, #223, #47 ) ;
#98 = EDGE_LOOP ( 'NONE', ( #234, #64 ) ) ;
#99 = PERSON_AND_ORGANIZATION ( #124, #127 ) ;
#100 = APPROVAL_ROLE ( '' ) ;
#101 = CIRCLE ( 'NONE', #88, 12.00000000000000178 ) ;
#102 = EDGE_CURVE ( 'NONE', #85, #92, #239, .T. ) ;
#103 = DIRECTION ( 'NONE',  ( -0.000000000000000000, -0.000000000000000000, -1.000000000000000000 ) ) ;
#104 = PERSON_AND_ORGANIZATION ( #124, #127 ) ;
#105 = DIRECTION ( 'NONE',  ( 1.000000000000000000, 0.000000000000000000, 0.000000000000000000 ) ) ;
#106 = CARTESIAN_POINT ( 'NONE',  ( 9.000000000000000000, 1.102182119232617714E-15, 315.0000000000000000 ) ) ;
#107 = VERTEX_POINT ( 'NONE', #202 ) ;
#108 = CARTESIAN_POINT ( 'NONE',  ( -12.00000000000000178, 0.000000000000000000, 7.000000000000000000 ) ) ;
#109 = PLANE ( 'NONE',  #122 ) ;
#110 = ADVANCED_FACE ( 'NONE', ( #29 ), #218, .T. ) ;
#111 = LOCAL_TIME ( 8, 50, 18.00000000000000000, #55 ) ;
#112 = CIRCLE ( 'NONE', #35, 9.000000000000000000 ) ;
#113 = CALENDAR_DATE ( 2023, 13, 2 ) ;
#114 = EDGE_CURVE ( 'NONE', #26, #82, #121, .T. ) ;
#115 = APPROVAL_ROLE ( '' ) ;
#116 = EDGE_CURVE ( 'NONE', #163, #87, #72, .T. ) ;
#117 = ORIENTED_EDGE ( 'NONE', *, *, #114, .F. ) ;
#118 = DATE_TIME_ROLE ( 'creation_date' ) ;
#119 = PERSON_AND_ORGANIZATION_ROLE ( 'creator' ) ;
#120 = EDGE_CURVE ( 'NONE', #190, #107, #179, .T. ) ;
#121 = LINE ( 'NONE', #141, #51 ) ;
#122 = AXIS2_PLACEMENT_3D ( 'NONE', #248, #84, #66 ) ;
#123 = DIRECTION ( 'NONE',  ( -0.000000000000000000, -0.000000000000000000, -1.000000000000000000 ) ) ;
#124 = PERSON ( 'NEURÈENÝ', 'NEURÈENÝ', 'NEURÈENÝ', ('NEURÈENÝ'), ('NEURÈENÝ'), ('NEURÈENÝ') ) ;
#125 = CARTESIAN_POINT ( 'NONE',  ( 0.000000000000000000, 0.000000000000000000, 7.000000000000000000 ) ) ;
#126 = EDGE_CURVE ( 'NONE', #85, #163, #112, .T. ) ;
#127 = ORGANIZATION ( 'NEURÈENÝ', 'NEURÈENÝ', '' ) ;
#128 = FACE_OUTER_BOUND ( 'NONE', #69, .T. ) ;
#129 = CARTESIAN_POINT ( 'NONE',  ( -12.00000000000000178, 0.000000000000000000, 7.000000000000000000 ) ) ;
#130 = CYLINDRICAL_SURFACE ( 'NONE', #25, 9.000000000000000000 ) ;
#131 = DESIGN_CONTEXT ( 'detailed design', #229, 'design' ) ;
#132 = AXIS2_PLACEMENT_3D ( 'NONE', #183, #13, #93 ) ;
#133 = SECURITY_CLASSIFICATION_LEVEL ( 'unclassified' ) ;
#134 = APPLICATION_PROTOCOL_DEFINITION ( 'international standard', 'config_control_design', 1994, #188 ) ;
#135 = DATE_AND_TIME ( #213, #240 ) ;
#136 = ORIENTED_EDGE ( 'NONE', *, *, #75, .T. ) ;
#137 = EDGE_LOOP ( 'NONE', ( #230, #236, #28, #209 ) ) ;
#138 = COORDINATED_UNIVERSAL_TIME_OFFSET ( 1, 0, .AHEAD. ) ;
#139 = DIRECTION ( 'NONE',  ( -0.000000000000000000, -0.000000000000000000, -1.000000000000000000 ) ) ;
#140 = CARTESIAN_POINT ( 'NONE',  ( 0.000000000000000000, 0.000000000000000000, 7.000000000000000000 ) ) ;
#141 = CARTESIAN_POINT ( 'NONE',  ( 12.00000000000000178, 1.469576158976824144E-15, 7.000000000000000000 ) ) ;
#142 = AXIS2_PLACEMENT_3D ( 'NONE', #253, #153, #173 ) ;
#143 = DIRECTION ( 'NONE',  ( 0.000000000000000000, 0.000000000000000000, 1.000000000000000000 ) ) ;
#144 = ADVANCED_FACE ( 'NONE', ( #171, #49 ), #4, .T. ) ;
#145 = COORDINATED_UNIVERSAL_TIME_OFFSET ( 1, 0, .AHEAD. ) ;
#146 = CLOSED_SHELL ( 'NONE', ( #155, #110, #36, #144, #83, #228, #150 ) ) ;
#147 = CC_DESIGN_DATE_AND_TIME_ASSIGNMENT ( #18, #74, ( #168 ) ) ;
#148 = ORIENTED_EDGE ( 'NONE', *, *, #242, .F. ) ;
#149 = AXIS2_PLACEMENT_3D ( 'NONE', #210, #192, #237 ) ;
#150 = ADVANCED_FACE ( 'NONE', ( #184 ), #109, .T. ) ;
#151 = ORIENTED_EDGE ( 'NONE', *, *, #221, .F. ) ;
#152 = PERSON_AND_ORGANIZATION ( #124, #127 ) ;
#153 = DIRECTION ( 'NONE',  ( 0.000000000000000000, 0.000000000000000000, 1.000000000000000000 ) ) ;
#154 = EDGE_LOOP ( 'NONE', ( #232, #136 ) ) ;
#155 = ADVANCED_FACE ( 'NONE', ( #57 ), #52, .T. ) ;
#156 = EDGE_LOOP ( 'NONE', ( #117, #60, #187, #79 ) ) ;
#157 = PLANE ( 'NONE',  #77 ) ;
#158 = PERSON_AND_ORGANIZATION_ROLE ( 'design_owner' ) ;
#159 = CARTESIAN_POINT ( 'NONE',  ( 9.000000000000000000, 1.102182119232617714E-15, 7.000000000000000000 ) ) ;
#160 = DIRECTION ( 'NONE',  ( -0.000000000000000000, -0.000000000000000000, -1.000000000000000000 ) ) ;
#161 = CARTESIAN_POINT ( 'NONE',  ( 0.000000000000000000, 0.000000000000000000, 315.0000000000000000 ) ) ;
#162 = DIRECTION ( 'NONE',  ( -0.000000000000000000, -0.000000000000000000, -1.000000000000000000 ) ) ;
#163 = VERTEX_POINT ( 'NONE', #165 ) ;
#164 = PRODUCT_DEFINITION_FORMATION_WITH_SPECIFIED_SOURCE ( 'LIBOVOLNÝ', '', #58, .NOT_KNOWN. ) ;
#165 = CARTESIAN_POINT ( 'NONE',  ( 9.000000000000000000, 1.102182119232617714E-15, 315.0000000000000000 ) ) ;
#166 = DIRECTION ( 'NONE',  ( 0.000000000000000000, 0.000000000000000000, 1.000000000000000000 ) ) ;
#167 = CARTESIAN_POINT ( 'NONE',  ( 0.000000000000000000, 0.000000000000000000, 7.000000000000000000 ) ) ;
#168 = SECURITY_CLASSIFICATION ( '', '', #133 ) ;
#169 = ORIENTED_EDGE ( 'NONE', *, *, #221, .T. ) ;
#170 = PERSON_AND_ORGANIZATION ( #124, #127 ) ;
#171 = FACE_BOUND ( 'NONE', #254, .T. ) ;
#172 = DATE_AND_TIME ( #27, #246 ) ;
#173 = DIRECTION ( 'NONE',  ( 1.000000000000000000, 0.000000000000000000, 0.000000000000000000 ) ) ;
#174 = EDGE_LOOP ( 'NONE', ( #22, #32, #41, #169 ) ) ;
#175 = CC_DESIGN_PERSON_AND_ORGANIZATION_ASSIGNMENT ( #152, #233, ( #164 ) ) ;
#176 = FACE_OUTER_BOUND ( 'NONE', #156, .T. ) ;
#177 = UNCERTAINTY_MEASURE_WITH_UNIT (LENGTH_MEASURE( 1.000000000000000082E-05 ), #216, 'distance_accuracy_value', 'NONE');
#178 = CIRCLE ( 'NONE', #227, 12.00000000000000178 ) ;
#179 = LINE ( 'NONE', #129, #45 ) ;
#180 = AXIS2_PLACEMENT_3D ( 'NONE', #197, #241, #105 ) ;
#181 = DIRECTION ( 'NONE',  ( 1.000000000000000000, 0.000000000000000000, 0.000000000000000000 ) ) ;
#182 = PRODUCT_RELATED_PRODUCT_CATEGORY ( 'detail', '', ( #58 ) ) ;
#183 = CARTESIAN_POINT ( 'NONE',  ( 0.000000000000000000, 0.000000000000000000, 7.000000000000000000 ) ) ;
#184 = FACE_OUTER_BOUND ( 'NONE', #154, .T. ) ;
#185 = DIRECTION ( 'NONE',  ( -0.000000000000000000, -0.000000000000000000, -1.000000000000000000 ) ) ;
#186 = EDGE_CURVE ( 'NONE', #190, #26, #101, .T. ) ;
#187 = ORIENTED_EDGE ( 'NONE', *, *, #120, .T. ) ;
#188 = APPLICATION_CONTEXT ( 'configuration controlled 3d designs of mechanical parts and assemblies' ) ;
#189 = CIRCLE ( 'NONE', #142, 12.00000000000000178 ) ;
#190 = VERTEX_POINT ( 'NONE', #108 ) ;
#191 = CC_DESIGN_DATE_AND_TIME_ASSIGNMENT ( #7, #118, ( #73 ) ) ;
#192 = DIRECTION ( 'NONE',  ( 0.000000000000000000, 0.000000000000000000, 1.000000000000000000 ) ) ;
#193 = PERSON_AND_ORGANIZATION ( #124, #127 ) ;
#194 = ORIENTED_EDGE ( 'NONE', *, *, #1, .T. ) ;
#195 = CC_DESIGN_APPROVAL ( #34, ( #168 ) ) ;
#196 = COORDINATED_UNIVERSAL_TIME_OFFSET ( 1, 0, .AHEAD. ) ;
#197 = CARTESIAN_POINT ( 'NONE',  ( 0.000000000000000000, 0.000000000000000000, 7.000000000000000000 ) ) ;
#198 = PERSON_AND_ORGANIZATION_ROLE ( 'creator' ) ;
#199 = DIRECTION ( 'NONE',  ( -1.000000000000000000, 0.000000000000000000, 0.000000000000000000 ) ) ;
#200 = CARTESIAN_POINT ( 'NONE',  ( 12.00000000000000178, 1.469576158976824144E-15, 7.000000000000000000 ) ) ;
#201 = VECTOR ( 'NONE', #139, 1000.000000000000000 ) ;
#202 = CARTESIAN_POINT ( 'NONE',  ( -12.00000000000000178, 0.000000000000000000, 0.000000000000000000 ) ) ;
#203 = DIRECTION ( 'NONE',  ( 1.000000000000000000, 0.000000000000000000, 0.000000000000000000 ) ) ;
#204 = CARTESIAN_POINT ( 'NONE',  ( 0.000000000000000000, 0.000000000000000000, 0.000000000000000000 ) ) ;
#205 = CARTESIAN_POINT ( 'NONE',  ( 0.000000000000000000, 0.000000000000000000, 315.0000000000000000 ) ) ;
#206 = CIRCLE ( 'NONE', #56, 12.00000000000000178 ) ;
#207 = DIRECTION ( 'NONE',  ( -1.000000000000000000, 0.000000000000000000, 0.000000000000000000 ) ) ;
#208 = APPROVAL_PERSON_ORGANIZATION ( #193, #249, #100 ) ;
#209 = ORIENTED_EDGE ( 'NONE', *, *, #120, .F. ) ;
#210 = CARTESIAN_POINT ( 'NONE',  ( 0.000000000000000000, 0.000000000000000000, 0.000000000000000000 ) ) ;
#211 = APPROVAL_DATE_TIME ( #135, #24 ) ;
#212 = ORIENTED_EDGE ( 'NONE', *, *, #1, .F. ) ;
#213 = CALENDAR_DATE ( 2023, 13, 2 ) ;
#214 = CARTESIAN_POINT ( 'NONE',  ( 0.000000000000000000, 0.000000000000000000, 7.000000000000000000 ) ) ;
#215 = COORDINATED_UNIVERSAL_TIME_OFFSET ( 1, 0, .AHEAD. ) ;
#216 =( LENGTH_UNIT ( ) NAMED_UNIT ( * ) SI_UNIT ( .MILLI., .METRE. ) );
#217 = VECTOR ( 'NONE', #53, 1000.000000000000000 ) ;
#218 = CYLINDRICAL_SURFACE ( 'NONE', #2, 12.00000000000000178 ) ;
#219 = CARTESIAN_POINT ( 'NONE',  ( -9.000000000000000000, 0.000000000000000000, 7.000000000000000000 ) ) ;
#220 = CARTESIAN_POINT ( 'NONE',  ( 0.000000000000000000, 0.000000000000000000, 315.0000000000000000 ) ) ;
#221 = EDGE_CURVE ( 'NONE', #92, #87, #15, .T. ) ;
#222 = APPROVAL_PERSON_ORGANIZATION ( #170, #24, #62 ) ;
#223 = DIRECTION ( 'NONE',  ( 0.000000000000000000, 0.000000000000000000, 1.000000000000000000 ) ) ;
#224 = PERSON_AND_ORGANIZATION_ROLE ( 'classification_officer' ) ;
#225 = ADVANCED_BREP_SHAPE_REPRESENTATION ( '6d76', ( #255, #149 ), #50 ) ;
#226 = CC_DESIGN_SECURITY_CLASSIFICATION ( #168, ( #164 ) ) ;
#227 = AXIS2_PLACEMENT_3D ( 'NONE', #204, #70, #181 ) ;
#228 = ADVANCED_FACE ( 'NONE', ( #247 ), #130, .T. ) ;
#229 = APPLICATION_CONTEXT ( 'configuration controlled 3d designs of mechanical parts and assemblies' ) ;
#230 = ORIENTED_EDGE ( 'NONE', *, *, #10, .F. ) ;
#231 = AXIS2_PLACEMENT_3D ( 'NONE', #14, #166, #94 ) ;
#232 = ORIENTED_EDGE ( 'NONE', *, *, #126, .T. ) ;
#233 = PERSON_AND_ORGANIZATION_ROLE ( 'design_supplier' ) ;
#234 = ORIENTED_EDGE ( 'NONE', *, *, #186, .T. ) ;
#235 =( NAMED_UNIT ( * ) SI_UNIT ( $, .STERADIAN. ) SOLID_ANGLE_UNIT ( ) );
#236 = ORIENTED_EDGE ( 'NONE', *, *, #114, .T. ) ;
#237 = DIRECTION ( 'NONE',  ( 1.000000000000000000, 0.000000000000000000, 0.000000000000000000 ) ) ;
#238 = CARTESIAN_POINT ( 'NONE',  ( -9.000000000000000000, 0.000000000000000000, 315.0000000000000000 ) ) ;
#239 = LINE ( 'NONE', #238, #201 ) ;
#240 = LOCAL_TIME ( 8, 50, 18.00000000000000000, #138 ) ;
#241 = DIRECTION ( 'NONE',  ( 0.000000000000000000, 0.000000000000000000, 1.000000000000000000 ) ) ;
#242 = EDGE_CURVE ( 'NONE', #107, #82, #189, .T. ) ;
#243 = ORIENTED_EDGE ( 'NONE', *, *, #102, .F. ) ;
#244 = DIRECTION ( 'NONE',  ( -1.000000000000000000, 0.000000000000000000, 0.000000000000000000 ) ) ;
#245 = CARTESIAN_POINT ( 'NONE',  ( 12.00000000000000178, 1.469576158976824144E-15, 0.000000000000000000 ) ) ;
#246 = LOCAL_TIME ( 8, 50, 18.00000000000000000, #196 ) ;
#247 = FACE_OUTER_BOUND ( 'NONE', #174, .T. ) ;
#248 = CARTESIAN_POINT ( 'NONE',  ( 0.000000000000000000, 0.000000000000000000, 315.0000000000000000 ) ) ;
#249 = APPROVAL ( #23, 'NEURÈENÝ' ) ;
#250 = DIRECTION ( 'NONE',  ( 0.000000000000000000, 0.000000000000000000, 1.000000000000000000 ) ) ;
#251 = DATE_AND_TIME ( #113, #111 ) ;
#252 = CIRCLE ( 'NONE', #97, 9.000000000000000000 ) ;
#253 = CARTESIAN_POINT ( 'NONE',  ( 0.000000000000000000, 0.000000000000000000, 0.000000000000000000 ) ) ;
#254 = EDGE_LOOP ( 'NONE', ( #151, #212 ) ) ;
#255 = MANIFOLD_SOLID_BREP ( 'Pøidat vysunutím3', #146 ) ;
ENDSEC;
END-ISO-10303-21;
