ISO-10303-21;
HEADER;
FILE_DESCRIPTION (( 'STEP AP203' ),
    '1' );
FILE_NAME ('e396.STEP',
    '2023-02-13T07:48:02',
    ( '' ),
    ( '' ),
    'SwSTEP 2.0',
    'SolidWorks 2019',
    '' );
FILE_SCHEMA (( 'CONFIG_CONTROL_DESIGN' ));
ENDSEC;

DATA;
#1 = EDGE_LOOP ( 'NONE', ( #196, #71, #32, #133 ) ) ;
#2 = COORDINATED_UNIVERSAL_TIME_OFFSET ( 1, 0, .AHEAD. ) ;
#3 = ORIENTED_EDGE ( 'NONE', *, *, #211, .F. ) ;
#4 = APPROVAL_PERSON_ORGANIZATION ( #199, #146, #126 ) ;
#5 = ORIENTED_EDGE ( 'NONE', *, *, #60, .T. ) ;
#6 = CIRCLE ( 'NONE', #54, 12.50000000000000000 ) ;
#7 = ADVANCED_FACE ( 'NONE', ( #235 ), #173, .T. ) ;
#8 = CARTESIAN_POINT ( 'NONE',  ( -16.00000000000000000, 0.000000000000000000, 0.000000000000000000 ) ) ;
#9 = FACE_OUTER_BOUND ( 'NONE', #163, .T. ) ;
#10 = CALENDAR_DATE ( 2023, 13, 2 ) ;
#11 = DIRECTION ( 'NONE',  ( 0.000000000000000000, 0.000000000000000000, 1.000000000000000000 ) ) ;
#12 = EDGE_CURVE ( 'NONE', #172, #239, #83, .T. ) ;
#13 = DIRECTION ( 'NONE',  ( 0.000000000000000000, 0.000000000000000000, 1.000000000000000000 ) ) ;
#14 = APPLICATION_PROTOCOL_DEFINITION ( 'international standard', 'config_control_design', 1994, #86 ) ;
#15 = LOCAL_TIME ( 8, 48, 2.000000000000000000, #131 ) ;
#16 = CALENDAR_DATE ( 2023, 13, 2 ) ;
#17 = DIRECTION ( 'NONE',  ( 1.000000000000000000, 0.000000000000000000, -0.000000000000000000 ) ) ;
#18 = CARTESIAN_POINT ( 'NONE',  ( 16.00000000000000000, 1.959434878635765131E-15, 10.00000000000000000 ) ) ;
#19 = APPROVAL_STATUS ( 'not_yet_approved' ) ;
#20 = ORIENTED_EDGE ( 'NONE', *, *, #100, .T. ) ;
#21 = ADVANCED_FACE ( 'NONE', ( #28 ), #220, .T. ) ;
#22 = CARTESIAN_POINT ( 'NONE',  ( -12.50000000000000000, 0.000000000000000000, 200.0000000000000000 ) ) ;
#23 = VERTEX_POINT ( 'NONE', #105 ) ;
#24 = ADVANCED_FACE ( 'NONE', ( #157, #9 ), #181, .T. ) ;
#25 = CARTESIAN_POINT ( 'NONE',  ( 0.000000000000000000, 0.000000000000000000, 200.0000000000000000 ) ) ;
#26 = VECTOR ( 'NONE', #232, 1000.000000000000000 ) ;
#27 = ADVANCED_FACE ( 'NONE', ( #33 ), #167, .T. ) ;
#28 = FACE_OUTER_BOUND ( 'NONE', #1, .T. ) ;
#29 = APPROVAL_STATUS ( 'not_yet_approved' ) ;
#30 = DESIGN_CONTEXT ( 'detailed design', #185, 'design' ) ;
#31 = CIRCLE ( 'NONE', #227, 16.00000000000000000 ) ;
#32 = ORIENTED_EDGE ( 'NONE', *, *, #245, .T. ) ;
#33 = FACE_OUTER_BOUND ( 'NONE', #244, .T. ) ;
#34 = AXIS2_PLACEMENT_3D ( 'NONE', #156, #87, #240 ) ;
#35 = CARTESIAN_POINT ( 'NONE',  ( 12.50000000000000000, 1.530808498934191521E-15, 200.0000000000000000 ) ) ;
#36 = ADVANCED_FACE ( 'NONE', ( #113 ), #40, .T. ) ;
#37 = PERSON_AND_ORGANIZATION ( #238, #151 ) ;
#38 = DIRECTION ( 'NONE',  ( -0.000000000000000000, -0.000000000000000000, -1.000000000000000000 ) ) ;
#39 = AXIS2_PLACEMENT_3D ( 'NONE', #164, #11, #204 ) ;
#40 = PLANE ( 'NONE',  #47 ) ;
#41 = DATE_TIME_ROLE ( 'classification_date' ) ;
#42 = CARTESIAN_POINT ( 'NONE',  ( 0.000000000000000000, 0.000000000000000000, 200.0000000000000000 ) ) ;
#43 = ORIENTED_EDGE ( 'NONE', *, *, #179, .T. ) ;
#44 = CIRCLE ( 'NONE', #125, 16.00000000000000000 ) ;
#45 = PERSON_AND_ORGANIZATION ( #238, #151 ) ;
#46 = ORIENTED_EDGE ( 'NONE', *, *, #52, .F. ) ;
#47 = AXIS2_PLACEMENT_3D ( 'NONE', #140, #229, #95 ) ;
#48 = ORIENTED_EDGE ( 'NONE', *, *, #116, .F. ) ;
#49 = COORDINATED_UNIVERSAL_TIME_OFFSET ( 1, 0, .AHEAD. ) ;
#50 = VECTOR ( 'NONE', #124, 1000.000000000000000 ) ;
#51 = AXIS2_PLACEMENT_3D ( 'NONE', #252, #205, #109 ) ;
#52 = EDGE_CURVE ( 'NONE', #117, #190, #160, .T. ) ;
#53 = APPLICATION_PROTOCOL_DEFINITION ( 'international standard', 'config_control_design', 1994, #185 ) ;
#54 = AXIS2_PLACEMENT_3D ( 'NONE', #250, #178, #55 ) ;
#55 = DIRECTION ( 'NONE',  ( 1.000000000000000000, 0.000000000000000000, 0.000000000000000000 ) ) ;
#56 = CC_DESIGN_PERSON_AND_ORGANIZATION_ASSIGNMENT ( #59, #210, ( #122 ) ) ;
#57 = DIRECTION ( 'NONE',  ( -0.000000000000000000, -0.000000000000000000, -1.000000000000000000 ) ) ;
#58 = PERSON_AND_ORGANIZATION_ROLE ( 'design_supplier' ) ;
#59 = PERSON_AND_ORGANIZATION ( #238, #151 ) ;
#60 = EDGE_CURVE ( 'NONE', #190, #174, #121, .T. ) ;
#61 = LINE ( 'NONE', #78, #96 ) ;
#62 = PRODUCT_DEFINITION_FORMATION_WITH_SPECIFIED_SOURCE ( 'LIBOVOLNÝ', '', #64, .NOT_KNOWN. ) ;
#63 = ORIENTED_EDGE ( 'NONE', *, *, #245, .F. ) ;
#64 = PRODUCT ( 'e396', 'e396', '', ( #161 ) ) ;
#65 = APPROVAL ( #236, 'NEURÈENÝ' ) ;
#66 = CARTESIAN_POINT ( 'NONE',  ( 0.000000000000000000, 0.000000000000000000, 10.00000000000000000 ) ) ;
#67 = DIRECTION ( 'NONE',  ( -1.000000000000000000, 0.000000000000000000, 0.000000000000000000 ) ) ;
#68 = CC_DESIGN_SECURITY_CLASSIFICATION ( #122, ( #62 ) ) ;
#69 = DIRECTION ( 'NONE',  ( 0.000000000000000000, 0.000000000000000000, 1.000000000000000000 ) ) ;
#70 = CARTESIAN_POINT ( 'NONE',  ( 0.000000000000000000, 0.000000000000000000, 200.0000000000000000 ) ) ;
#71 = ORIENTED_EDGE ( 'NONE', *, *, #12, .F. ) ;
#72 = LOCAL_TIME ( 8, 48, 2.000000000000000000, #2 ) ;
#73 = CARTESIAN_POINT ( 'NONE',  ( 12.50000000000000000, 1.530808498934191521E-15, 200.0000000000000000 ) ) ;
#74 = DIRECTION ( 'NONE',  ( 1.000000000000000000, 0.000000000000000000, 0.000000000000000000 ) ) ;
#75 = AXIS2_PLACEMENT_3D ( 'NONE', #25, #104, #67 ) ;
#76 = DIRECTION ( 'NONE',  ( 0.000000000000000000, 0.000000000000000000, 1.000000000000000000 ) ) ;
#77 = PERSON_AND_ORGANIZATION ( #238, #151 ) ;
#78 = CARTESIAN_POINT ( 'NONE',  ( 16.00000000000000000, 1.959434878635765131E-15, 10.00000000000000000 ) ) ;
#79 = EDGE_LOOP ( 'NONE', ( #3, #209 ) ) ;
#80 = EDGE_CURVE ( 'NONE', #239, #195, #115, .T. ) ;
#81 = PERSON_AND_ORGANIZATION_ROLE ( 'creator' ) ;
#82 = ORIENTED_EDGE ( 'NONE', *, *, #52, .T. ) ;
#83 = CIRCLE ( 'NONE', #154, 12.50000000000000000 ) ;
#84 = ORIENTED_EDGE ( 'NONE', *, *, #179, .F. ) ;
#85 = APPROVAL_PERSON_ORGANIZATION ( #183, #65, #130 ) ;
#86 = APPLICATION_CONTEXT ( 'configuration controlled 3d designs of mechanical parts and assemblies' ) ;
#87 = DIRECTION ( 'NONE',  ( 0.000000000000000000, 0.000000000000000000, 1.000000000000000000 ) ) ;
#88 = VECTOR ( 'NONE', #38, 1000.000000000000000 ) ;
#89 = ADVANCED_BREP_SHAPE_REPRESENTATION ( 'e396', ( #134, #141 ), #182 ) ;
#90 = PLANE ( 'NONE',  #202 ) ;
#91 = CARTESIAN_POINT ( 'NONE',  ( -16.00000000000000000, 0.000000000000000000, 10.00000000000000000 ) ) ;
#92 = PERSON_AND_ORGANIZATION_ROLE ( 'creator' ) ;
#93 = ORIENTED_EDGE ( 'NONE', *, *, #100, .F. ) ;
#94 = FACE_OUTER_BOUND ( 'NONE', #103, .T. ) ;
#95 = DIRECTION ( 'NONE',  ( 1.000000000000000000, 0.000000000000000000, -0.000000000000000000 ) ) ;
#96 = VECTOR ( 'NONE', #234, 1000.000000000000000 ) ;
#97 = CALENDAR_DATE ( 2023, 13, 2 ) ;
#98 = CC_DESIGN_PERSON_AND_ORGANIZATION_ASSIGNMENT ( #77, #58, ( #62 ) ) ;
#99 = DIRECTION ( 'NONE',  ( 0.000000000000000000, 0.000000000000000000, 1.000000000000000000 ) ) ;
#100 = EDGE_CURVE ( 'NONE', #174, #190, #31, .T. ) ;
#101 = DATE_AND_TIME ( #169, #237 ) ;
#102 = EDGE_LOOP ( 'NONE', ( #120, #193, #200, #63 ) ) ;
#103 = EDGE_LOOP ( 'NONE', ( #118, #93 ) ) ;
#104 = DIRECTION ( 'NONE',  ( -0.000000000000000000, -0.000000000000000000, -1.000000000000000000 ) ) ;
#105 = CARTESIAN_POINT ( 'NONE',  ( -12.50000000000000000, 0.000000000000000000, 10.00000000000000000 ) ) ;
#106 = CC_DESIGN_PERSON_AND_ORGANIZATION_ASSIGNMENT ( #255, #81, ( #62 ) ) ;
#107 = APPROVAL_DATE_TIME ( #203, #146 ) ;
#108 = LINE ( 'NONE', #228, #26 ) ;
#109 = DIRECTION ( 'NONE',  ( -1.000000000000000000, 0.000000000000000000, 0.000000000000000000 ) ) ;
#110 =( LENGTH_UNIT ( ) NAMED_UNIT ( * ) SI_UNIT ( .MILLI., .METRE. ) );
#111 = CARTESIAN_POINT ( 'NONE',  ( 0.000000000000000000, 0.000000000000000000, 10.00000000000000000 ) ) ;
#112 = ADVANCED_FACE ( 'NONE', ( #145 ), #233, .T. ) ;
#113 = FACE_OUTER_BOUND ( 'NONE', #149, .T. ) ;
#114 = APPROVAL_ROLE ( '' ) ;
#115 = LINE ( 'NONE', #73, #88 ) ;
#116 = EDGE_CURVE ( 'NONE', #117, #152, #44, .T. ) ;
#117 = VERTEX_POINT ( 'NONE', #184 ) ;
#118 = ORIENTED_EDGE ( 'NONE', *, *, #60, .F. ) ;
#119 = COORDINATED_UNIVERSAL_TIME_OFFSET ( 1, 0, .AHEAD. ) ;
#120 = ORIENTED_EDGE ( 'NONE', *, *, #192, .F. ) ;
#121 = CIRCLE ( 'NONE', #39, 16.00000000000000000 ) ;
#122 = SECURITY_CLASSIFICATION ( '', '', #150 ) ;
#123 = PERSON_AND_ORGANIZATION ( #238, #151 ) ;
#124 = DIRECTION ( 'NONE',  ( -0.000000000000000000, -0.000000000000000000, -1.000000000000000000 ) ) ;
#125 = AXIS2_PLACEMENT_3D ( 'NONE', #226, #76, #212 ) ;
#126 = APPROVAL_ROLE ( '' ) ;
#127 = DIRECTION ( 'NONE',  ( 1.000000000000000000, 0.000000000000000000, 0.000000000000000000 ) ) ;
#128 = LOCAL_TIME ( 8, 48, 2.000000000000000000, #253 ) ;
#129 = SHAPE_DEFINITION_REPRESENTATION ( #217, #89 ) ;
#130 = APPROVAL_ROLE ( '' ) ;
#131 = COORDINATED_UNIVERSAL_TIME_OFFSET ( 1, 0, .AHEAD. ) ;
#132 = APPROVAL ( #19, 'NEURÈENÝ' ) ;
#133 = ORIENTED_EDGE ( 'NONE', *, *, #211, .T. ) ;
#134 = MANIFOLD_SOLID_BREP ( 'Pøidat vysunutím3', #191 ) ;
#135 = CC_DESIGN_PERSON_AND_ORGANIZATION_ASSIGNMENT ( #37, #144, ( #64 ) ) ;
#136 = AXIS2_PLACEMENT_3D ( 'NONE', #111, #13, #17 ) ;
#137 = CC_DESIGN_DATE_AND_TIME_ASSIGNMENT ( #171, #168, ( #180 ) ) ;
#138 = DIRECTION ( 'NONE',  ( 1.000000000000000000, 0.000000000000000000, 0.000000000000000000 ) ) ;
#139 = DIRECTION ( 'NONE',  ( -1.000000000000000000, 0.000000000000000000, 0.000000000000000000 ) ) ;
#140 = CARTESIAN_POINT ( 'NONE',  ( 0.000000000000000000, 0.000000000000000000, 200.0000000000000000 ) ) ;
#141 = AXIS2_PLACEMENT_3D ( 'NONE', #201, #225, #74 ) ;
#142 =( NAMED_UNIT ( * ) SI_UNIT ( $, .STERADIAN. ) SOLID_ANGLE_UNIT ( ) );
#143 = CARTESIAN_POINT ( 'NONE',  ( 0.000000000000000000, 0.000000000000000000, 0.000000000000000000 ) ) ;
#144 = PERSON_AND_ORGANIZATION_ROLE ( 'design_owner' ) ;
#145 = FACE_OUTER_BOUND ( 'NONE', #102, .T. ) ;
#146 = APPROVAL ( #29, 'NEURÈENÝ' ) ;
#147 = APPROVAL_DATE_TIME ( #148, #65 ) ;
#148 = DATE_AND_TIME ( #16, #128 ) ;
#149 = EDGE_LOOP ( 'NONE', ( #221, #214 ) ) ;
#150 = SECURITY_CLASSIFICATION_LEVEL ( 'unclassified' ) ;
#151 = ORGANIZATION ( 'NEURÈENÝ', 'NEURÈENÝ', '' ) ;
#152 = VERTEX_POINT ( 'NONE', #18 ) ;
#153 = CARTESIAN_POINT ( 'NONE',  ( 0.000000000000000000, 0.000000000000000000, 10.00000000000000000 ) ) ;
#154 = AXIS2_PLACEMENT_3D ( 'NONE', #42, #223, #138 ) ;
#155 = CARTESIAN_POINT ( 'NONE',  ( 12.50000000000000000, 1.530808498934191521E-15, 10.00000000000000000 ) ) ;
#156 = CARTESIAN_POINT ( 'NONE',  ( 0.000000000000000000, 0.000000000000000000, 200.0000000000000000 ) ) ;
#157 = FACE_BOUND ( 'NONE', #79, .T. ) ;
#158 = ORIENTED_EDGE ( 'NONE', *, *, #116, .T. ) ;
#159 = CARTESIAN_POINT ( 'NONE',  ( 0.000000000000000000, 0.000000000000000000, 0.000000000000000000 ) ) ;
#160 = LINE ( 'NONE', #91, #50 ) ;
#161 = MECHANICAL_CONTEXT ( 'NONE', #86, 'mechanical' ) ;
#162 = CC_DESIGN_DATE_AND_TIME_ASSIGNMENT ( #213, #41, ( #122 ) ) ;
#163 = EDGE_LOOP ( 'NONE', ( #158, #43 ) ) ;
#164 = CARTESIAN_POINT ( 'NONE',  ( 0.000000000000000000, 0.000000000000000000, 0.000000000000000000 ) ) ;
#165 = CC_DESIGN_APPROVAL ( #146, ( #180 ) ) ;
#166 = AXIS2_PLACEMENT_3D ( 'NONE', #66, #197, #242 ) ;
#167 = CYLINDRICAL_SURFACE ( 'NONE', #51, 16.00000000000000000 ) ;
#168 = DATE_TIME_ROLE ( 'creation_date' ) ;
#169 = CALENDAR_DATE ( 2023, 13, 2 ) ;
#170 = EDGE_CURVE ( 'NONE', #152, #174, #61, .T. ) ;
#171 = DATE_AND_TIME ( #97, #72 ) ;
#172 = VERTEX_POINT ( 'NONE', #22 ) ;
#173 = CYLINDRICAL_SURFACE ( 'NONE', #219, 16.00000000000000000 ) ;
#174 = VERTEX_POINT ( 'NONE', #188 ) ;
#175 = AXIS2_PLACEMENT_3D ( 'NONE', #70, #206, #139 ) ;
#176 = LOCAL_TIME ( 8, 48, 2.000000000000000000, #49 ) ;
#177 = DIRECTION ( 'NONE',  ( 1.000000000000000000, 0.000000000000000000, 0.000000000000000000 ) ) ;
#178 = DIRECTION ( 'NONE',  ( 0.000000000000000000, 0.000000000000000000, 1.000000000000000000 ) ) ;
#179 = EDGE_CURVE ( 'NONE', #152, #117, #254, .T. ) ;
#180 = PRODUCT_DEFINITION ( 'NEZNÁMÝ', '', #62, #30 ) ;
#181 = PLANE ( 'NONE',  #136 ) ;
#182 =( GEOMETRIC_REPRESENTATION_CONTEXT ( 3 ) GLOBAL_UNCERTAINTY_ASSIGNED_CONTEXT ( ( #222 ) ) GLOBAL_UNIT_ASSIGNED_CONTEXT ( ( #110, #251, #142 ) ) REPRESENTATION_CONTEXT ( 'NONE', 'WORKASPACE' ) );
#183 = PERSON_AND_ORGANIZATION ( #238, #151 ) ;
#184 = CARTESIAN_POINT ( 'NONE',  ( -16.00000000000000000, 0.000000000000000000, 10.00000000000000000 ) ) ;
#185 = APPLICATION_CONTEXT ( 'configuration controlled 3d designs of mechanical parts and assemblies' ) ;
#186 = CC_DESIGN_PERSON_AND_ORGANIZATION_ASSIGNMENT ( #123, #92, ( #180 ) ) ;
#187 = AXIS2_PLACEMENT_3D ( 'NONE', #194, #99, #177 ) ;
#188 = CARTESIAN_POINT ( 'NONE',  ( 16.00000000000000000, 1.959434878635765131E-15, 0.000000000000000000 ) ) ;
#189 = CALENDAR_DATE ( 2023, 13, 2 ) ;
#190 = VERTEX_POINT ( 'NONE', #8 ) ;
#191 = CLOSED_SHELL ( 'NONE', ( #112, #7, #27, #24, #231, #21, #36 ) ) ;
#192 = EDGE_CURVE ( 'NONE', #239, #172, #241, .T. ) ;
#193 = ORIENTED_EDGE ( 'NONE', *, *, #80, .T. ) ;
#194 = CARTESIAN_POINT ( 'NONE',  ( 0.000000000000000000, 0.000000000000000000, 10.00000000000000000 ) ) ;
#195 = VERTEX_POINT ( 'NONE', #155 ) ;
#196 = ORIENTED_EDGE ( 'NONE', *, *, #80, .F. ) ;
#197 = DIRECTION ( 'NONE',  ( 0.000000000000000000, 0.000000000000000000, 1.000000000000000000 ) ) ;
#198 = APPROVAL_PERSON_ORGANIZATION ( #45, #132, #114 ) ;
#199 = PERSON_AND_ORGANIZATION ( #238, #151 ) ;
#200 = ORIENTED_EDGE ( 'NONE', *, *, #249, .T. ) ;
#201 = CARTESIAN_POINT ( 'NONE',  ( 0.000000000000000000, 0.000000000000000000, 0.000000000000000000 ) ) ;
#202 = AXIS2_PLACEMENT_3D ( 'NONE', #159, #69, #230 ) ;
#203 = DATE_AND_TIME ( #10, #176 ) ;
#204 = DIRECTION ( 'NONE',  ( 1.000000000000000000, 0.000000000000000000, 0.000000000000000000 ) ) ;
#205 = DIRECTION ( 'NONE',  ( -0.000000000000000000, -0.000000000000000000, -1.000000000000000000 ) ) ;
#206 = DIRECTION ( 'NONE',  ( -0.000000000000000000, -0.000000000000000000, -1.000000000000000000 ) ) ;
#207 = APPROVAL_DATE_TIME ( #101, #132 ) ;
#208 = DIRECTION ( 'NONE',  ( -1.000000000000000000, 0.000000000000000000, 0.000000000000000000 ) ) ;
#209 = ORIENTED_EDGE ( 'NONE', *, *, #249, .F. ) ;
#210 = PERSON_AND_ORGANIZATION_ROLE ( 'classification_officer' ) ;
#211 = EDGE_CURVE ( 'NONE', #23, #195, #215, .T. ) ;
#212 = DIRECTION ( 'NONE',  ( 1.000000000000000000, 0.000000000000000000, 0.000000000000000000 ) ) ;
#213 = DATE_AND_TIME ( #189, #15 ) ;
#214 = ORIENTED_EDGE ( 'NONE', *, *, #192, .T. ) ;
#215 = CIRCLE ( 'NONE', #166, 12.50000000000000000 ) ;
#216 = PRODUCT_RELATED_PRODUCT_CATEGORY ( 'detail', '', ( #64 ) ) ;
#217 = PRODUCT_DEFINITION_SHAPE ( 'NONE', 'NONE',  #180 ) ;
#218 = EDGE_LOOP ( 'NONE', ( #84, #248, #20, #46 ) ) ;
#219 = AXIS2_PLACEMENT_3D ( 'NONE', #153, #57, #208 ) ;
#220 = CYLINDRICAL_SURFACE ( 'NONE', #75, 12.50000000000000000 ) ;
#221 = ORIENTED_EDGE ( 'NONE', *, *, #12, .T. ) ;
#222 = UNCERTAINTY_MEASURE_WITH_UNIT (LENGTH_MEASURE( 1.000000000000000082E-05 ), #110, 'distance_accuracy_value', 'NONE');
#223 = DIRECTION ( 'NONE',  ( 0.000000000000000000, 0.000000000000000000, 1.000000000000000000 ) ) ;
#224 = CC_DESIGN_APPROVAL ( #65, ( #122 ) ) ;
#225 = DIRECTION ( 'NONE',  ( 0.000000000000000000, 0.000000000000000000, 1.000000000000000000 ) ) ;
#226 = CARTESIAN_POINT ( 'NONE',  ( 0.000000000000000000, 0.000000000000000000, 10.00000000000000000 ) ) ;
#227 = AXIS2_PLACEMENT_3D ( 'NONE', #143, #247, #127 ) ;
#228 = CARTESIAN_POINT ( 'NONE',  ( -12.50000000000000000, 0.000000000000000000, 200.0000000000000000 ) ) ;
#229 = DIRECTION ( 'NONE',  ( 0.000000000000000000, 0.000000000000000000, 1.000000000000000000 ) ) ;
#230 = DIRECTION ( 'NONE',  ( 1.000000000000000000, 0.000000000000000000, -0.000000000000000000 ) ) ;
#231 = ADVANCED_FACE ( 'NONE', ( #94 ), #90, .F. ) ;
#232 = DIRECTION ( 'NONE',  ( -0.000000000000000000, -0.000000000000000000, -1.000000000000000000 ) ) ;
#233 = CYLINDRICAL_SURFACE ( 'NONE', #175, 12.50000000000000000 ) ;
#234 = DIRECTION ( 'NONE',  ( -0.000000000000000000, -0.000000000000000000, -1.000000000000000000 ) ) ;
#235 = FACE_OUTER_BOUND ( 'NONE', #218, .T. ) ;
#236 = APPROVAL_STATUS ( 'not_yet_approved' ) ;
#237 = LOCAL_TIME ( 8, 48, 2.000000000000000000, #119 ) ;
#238 = PERSON ( 'NEURÈENÝ', 'NEURÈENÝ', 'NEURÈENÝ', ('NEURÈENÝ'), ('NEURÈENÝ'), ('NEURÈENÝ') ) ;
#239 = VERTEX_POINT ( 'NONE', #35 ) ;
#240 = DIRECTION ( 'NONE',  ( 1.000000000000000000, 0.000000000000000000, 0.000000000000000000 ) ) ;
#241 = CIRCLE ( 'NONE', #34, 12.50000000000000000 ) ;
#242 = DIRECTION ( 'NONE',  ( 1.000000000000000000, 0.000000000000000000, 0.000000000000000000 ) ) ;
#243 = ORIENTED_EDGE ( 'NONE', *, *, #170, .F. ) ;
#244 = EDGE_LOOP ( 'NONE', ( #243, #48, #82, #5 ) ) ;
#245 = EDGE_CURVE ( 'NONE', #172, #23, #108, .T. ) ;
#246 = CC_DESIGN_APPROVAL ( #132, ( #62 ) ) ;
#247 = DIRECTION ( 'NONE',  ( 0.000000000000000000, 0.000000000000000000, 1.000000000000000000 ) ) ;
#248 = ORIENTED_EDGE ( 'NONE', *, *, #170, .T. ) ;
#249 = EDGE_CURVE ( 'NONE', #195, #23, #6, .T. ) ;
#250 = CARTESIAN_POINT ( 'NONE',  ( 0.000000000000000000, 0.000000000000000000, 10.00000000000000000 ) ) ;
#251 =( NAMED_UNIT ( * ) PLANE_ANGLE_UNIT ( ) SI_UNIT ( $, .RADIAN. ) );
#252 = CARTESIAN_POINT ( 'NONE',  ( 0.000000000000000000, 0.000000000000000000, 10.00000000000000000 ) ) ;
#253 = COORDINATED_UNIVERSAL_TIME_OFFSET ( 1, 0, .AHEAD. ) ;
#254 = CIRCLE ( 'NONE', #187, 16.00000000000000000 ) ;
#255 = PERSON_AND_ORGANIZATION ( #238, #151 ) ;
ENDSEC;
END-ISO-10303-21;
