ISO-10303-21;
HEADER;
FILE_DESCRIPTION (( 'STEP AP203' ),
    '1' );
FILE_NAME ('dde9.STEP',
    '2023-02-13T10:16:29',
    ( '' ),
    ( '' ),
    'SwSTEP 2.0',
    'SolidWorks 2019',
    '' );
FILE_SCHEMA (( 'CONFIG_CONTROL_DESIGN' ));
ENDSEC;

DATA;
#1 = CC_DESIGN_APPROVAL ( #183, ( #49 ) ) ;
#2 = DIRECTION ( 'NONE',  ( 0.000000000000000000, 0.000000000000000000, 1.000000000000000000 ) ) ;
#3 = ORIENTED_EDGE ( 'NONE', *, *, #17, .F. ) ;
#4 = PERSON ( 'NEURÈENÝ', 'NEURÈENÝ', 'NEURÈENÝ', ('NEURÈENÝ'), ('NEURÈENÝ'), ('NEURÈENÝ') ) ;
#5 = FACE_OUTER_BOUND ( 'NONE', #10, .T. ) ;
#6 = DIRECTION ( 'NONE',  ( 1.000000000000000000, 0.000000000000000000, 0.000000000000000000 ) ) ;
#7 = VECTOR ( 'NONE', #126, 1000.000000000000000 ) ;
#8 = DIRECTION ( 'NONE',  ( 0.000000000000000000, 0.000000000000000000, 1.000000000000000000 ) ) ;
#9 = DATE_TIME_ROLE ( 'classification_date' ) ;
#10 = EDGE_LOOP ( 'NONE', ( #163, #12 ) ) ;
#11 = PERSON_AND_ORGANIZATION_ROLE ( 'creator' ) ;
#12 = ORIENTED_EDGE ( 'NONE', *, *, #185, .T. ) ;
#13 = CALENDAR_DATE ( 2023, 13, 2 ) ;
#14 = ORIENTED_EDGE ( 'NONE', *, *, #240, .F. ) ;
#15 = VERTEX_POINT ( 'NONE', #170 ) ;
#16 =( GEOMETRIC_REPRESENTATION_CONTEXT ( 3 ) GLOBAL_UNCERTAINTY_ASSIGNED_CONTEXT ( ( #71 ) ) GLOBAL_UNIT_ASSIGNED_CONTEXT ( ( #68, #238, #63 ) ) REPRESENTATION_CONTEXT ( 'NONE', 'WORKASPACE' ) );
#17 = EDGE_CURVE ( 'NONE', #15, #104, #233, .T. ) ;
#18 = ADVANCED_BREP_SHAPE_REPRESENTATION ( 'dde9', ( #181, #202 ), #16 ) ;
#19 = DIRECTION ( 'NONE',  ( 1.000000000000000000, 0.000000000000000000, 0.000000000000000000 ) ) ;
#20 = DIRECTION ( 'NONE',  ( -1.000000000000000000, 0.000000000000000000, 0.000000000000000000 ) ) ;
#21 = SHAPE_DEFINITION_REPRESENTATION ( #219, #18 ) ;
#22 = CLOSED_SHELL ( 'NONE', ( #145, #58, #252, #28, #64, #234, #218 ) ) ;
#23 = CARTESIAN_POINT ( 'NONE',  ( 0.000000000000000000, 0.000000000000000000, 5.000000000000000000 ) ) ;
#24 = PRODUCT ( 'dde9', 'dde9', '', ( #34 ) ) ;
#25 = DIRECTION ( 'NONE',  ( -1.000000000000000000, 0.000000000000000000, 0.000000000000000000 ) ) ;
#26 = DIRECTION ( 'NONE',  ( 0.000000000000000000, 0.000000000000000000, 1.000000000000000000 ) ) ;
#27 = ORIENTED_EDGE ( 'NONE', *, *, #134, .T. ) ;
#28 = ADVANCED_FACE ( 'NONE', ( #75, #57 ), #215, .T. ) ;
#29 = DIRECTION ( 'NONE',  ( 1.000000000000000000, 0.000000000000000000, 0.000000000000000000 ) ) ;
#30 = APPROVAL_STATUS ( 'not_yet_approved' ) ;
#31 = LOCAL_TIME ( 11, 16, 29.00000000000000000, #111 ) ;
#32 = SECURITY_CLASSIFICATION_LEVEL ( 'unclassified' ) ;
#33 = VERTEX_POINT ( 'NONE', #40 ) ;
#34 = MECHANICAL_CONTEXT ( 'NONE', #47, 'mechanical' ) ;
#35 = DIRECTION ( 'NONE',  ( 0.000000000000000000, 0.000000000000000000, 1.000000000000000000 ) ) ;
#36 = VERTEX_POINT ( 'NONE', #197 ) ;
#37 = CIRCLE ( 'NONE', #182, 5.000000000000000000 ) ;
#38 = PERSON_AND_ORGANIZATION_ROLE ( 'design_owner' ) ;
#39 = ORIENTED_EDGE ( 'NONE', *, *, #185, .F. ) ;
#40 = CARTESIAN_POINT ( 'NONE',  ( 5.000000000000000000, 6.123233995736766282E-16, 5.000000000000000000 ) ) ;
#41 = CARTESIAN_POINT ( 'NONE',  ( 8.000000000000000000, 9.797174393178825657E-16, 5.000000000000000000 ) ) ;
#42 = DIRECTION ( 'NONE',  ( -0.000000000000000000, -0.000000000000000000, -1.000000000000000000 ) ) ;
#43 = AXIS2_PLACEMENT_3D ( 'NONE', #210, #247, #151 ) ;
#44 = CARTESIAN_POINT ( 'NONE',  ( 0.000000000000000000, 0.000000000000000000, 5.000000000000000000 ) ) ;
#45 = DIRECTION ( 'NONE',  ( 1.000000000000000000, 0.000000000000000000, -0.000000000000000000 ) ) ;
#46 = AXIS2_PLACEMENT_3D ( 'NONE', #70, #147, #48 ) ;
#47 = APPLICATION_CONTEXT ( 'configuration controlled 3d designs of mechanical parts and assemblies' ) ;
#48 = DIRECTION ( 'NONE',  ( -1.000000000000000000, 0.000000000000000000, 0.000000000000000000 ) ) ;
#49 = PRODUCT_DEFINITION_FORMATION_WITH_SPECIFIED_SOURCE ( 'LIBOVOLNÝ', '', #24, .NOT_KNOWN. ) ;
#50 = CC_DESIGN_PERSON_AND_ORGANIZATION_ASSIGNMENT ( #78, #11, ( #67 ) ) ;
#51 = CARTESIAN_POINT ( 'NONE',  ( 5.000000000000000000, 6.123233995736766282E-16, 100.0000000000000000 ) ) ;
#52 = DIRECTION ( 'NONE',  ( 0.000000000000000000, 0.000000000000000000, 1.000000000000000000 ) ) ;
#53 = CARTESIAN_POINT ( 'NONE',  ( 0.000000000000000000, 0.000000000000000000, 0.000000000000000000 ) ) ;
#54 = EDGE_LOOP ( 'NONE', ( #113, #195 ) ) ;
#55 = CIRCLE ( 'NONE', #43, 5.000000000000000000 ) ;
#56 = CARTESIAN_POINT ( 'NONE',  ( 0.000000000000000000, 0.000000000000000000, 0.000000000000000000 ) ) ;
#57 = FACE_OUTER_BOUND ( 'NONE', #54, .T. ) ;
#58 = ADVANCED_FACE ( 'NONE', ( #117 ), #168, .T. ) ;
#59 = AXIS2_PLACEMENT_3D ( 'NONE', #100, #26, #45 ) ;
#60 = CC_DESIGN_PERSON_AND_ORGANIZATION_ASSIGNMENT ( #205, #109, ( #198 ) ) ;
#61 = CIRCLE ( 'NONE', #242, 8.000000000000000000 ) ;
#62 = EDGE_CURVE ( 'NONE', #33, #104, #254, .T. ) ;
#63 =( NAMED_UNIT ( * ) SI_UNIT ( $, .STERADIAN. ) SOLID_ANGLE_UNIT ( ) );
#64 = ADVANCED_FACE ( 'NONE', ( #110 ), #192, .F. ) ;
#65 = AXIS2_PLACEMENT_3D ( 'NONE', #23, #156, #217 ) ;
#66 = APPLICATION_PROTOCOL_DEFINITION ( 'international standard', 'config_control_design', 1994, #47 ) ;
#67 = PRODUCT_DEFINITION ( 'NEZNÁMÝ', '', #49, #125 ) ;
#68 =( LENGTH_UNIT ( ) NAMED_UNIT ( * ) SI_UNIT ( .MILLI., .METRE. ) );
#69 = COORDINATED_UNIVERSAL_TIME_OFFSET ( 1, 0, .AHEAD. ) ;
#70 = CARTESIAN_POINT ( 'NONE',  ( 0.000000000000000000, 0.000000000000000000, 5.000000000000000000 ) ) ;
#71 = UNCERTAINTY_MEASURE_WITH_UNIT (LENGTH_MEASURE( 1.000000000000000082E-05 ), #68, 'distance_accuracy_value', 'NONE');
#72 = DATE_TIME_ROLE ( 'creation_date' ) ;
#73 = DIRECTION ( 'NONE',  ( 1.000000000000000000, 0.000000000000000000, -0.000000000000000000 ) ) ;
#74 = PERSON_AND_ORGANIZATION ( #4, #108 ) ;
#75 = FACE_BOUND ( 'NONE', #142, .T. ) ;
#76 = DIRECTION ( 'NONE',  ( 1.000000000000000000, 0.000000000000000000, 0.000000000000000000 ) ) ;
#77 = VERTEX_POINT ( 'NONE', #149 ) ;
#78 = PERSON_AND_ORGANIZATION ( #4, #108 ) ;
#79 = DIRECTION ( 'NONE',  ( -0.000000000000000000, -0.000000000000000000, -1.000000000000000000 ) ) ;
#80 = EDGE_CURVE ( 'NONE', #201, #33, #227, .T. ) ;
#81 = LOCAL_TIME ( 11, 16, 29.00000000000000000, #107 ) ;
#82 = CARTESIAN_POINT ( 'NONE',  ( 0.000000000000000000, 0.000000000000000000, 100.0000000000000000 ) ) ;
#83 = APPROVAL_PERSON_ORGANIZATION ( #209, #187, #167 ) ;
#84 = CARTESIAN_POINT ( 'NONE',  ( 0.000000000000000000, 0.000000000000000000, 100.0000000000000000 ) ) ;
#85 = ORIENTED_EDGE ( 'NONE', *, *, #255, .F. ) ;
#86 = PLANE ( 'NONE',  #59 ) ;
#87 = AXIS2_PLACEMENT_3D ( 'NONE', #53, #177, #19 ) ;
#88 = DIRECTION ( 'NONE',  ( -0.000000000000000000, -0.000000000000000000, -1.000000000000000000 ) ) ;
#89 = DATE_AND_TIME ( #190, #81 ) ;
#90 = ORIENTED_EDGE ( 'NONE', *, *, #62, .T. ) ;
#91 = PERSON_AND_ORGANIZATION ( #4, #108 ) ;
#92 = ORIENTED_EDGE ( 'NONE', *, *, #137, .F. ) ;
#93 = CC_DESIGN_SECURITY_CLASSIFICATION ( #198, ( #49 ) ) ;
#94 = ORIENTED_EDGE ( 'NONE', *, *, #97, .T. ) ;
#95 = ORIENTED_EDGE ( 'NONE', *, *, #179, .F. ) ;
#96 = VECTOR ( 'NONE', #79, 1000.000000000000000 ) ;
#97 = EDGE_CURVE ( 'NONE', #104, #33, #55, .T. ) ;
#98 = CC_DESIGN_APPROVAL ( #187, ( #67 ) ) ;
#99 = AXIS2_PLACEMENT_3D ( 'NONE', #124, #172, #245 ) ;
#100 = CARTESIAN_POINT ( 'NONE',  ( 0.000000000000000000, 0.000000000000000000, 100.0000000000000000 ) ) ;
#101 = FACE_OUTER_BOUND ( 'NONE', #220, .T. ) ;
#102 = EDGE_CURVE ( 'NONE', #203, #36, #164, .T. ) ;
#103 = CC_DESIGN_DATE_AND_TIME_ASSIGNMENT ( #89, #9, ( #198 ) ) ;
#104 = VERTEX_POINT ( 'NONE', #138 ) ;
#105 = DIRECTION ( 'NONE',  ( -0.000000000000000000, -0.000000000000000000, -1.000000000000000000 ) ) ;
#106 = CC_DESIGN_PERSON_AND_ORGANIZATION_ASSIGNMENT ( #148, #128, ( #49 ) ) ;
#107 = COORDINATED_UNIVERSAL_TIME_OFFSET ( 1, 0, .AHEAD. ) ;
#108 = ORGANIZATION ( 'NEURÈENÝ', 'NEURÈENÝ', '' ) ;
#109 = PERSON_AND_ORGANIZATION_ROLE ( 'classification_officer' ) ;
#110 = FACE_OUTER_BOUND ( 'NONE', #225, .T. ) ;
#111 = COORDINATED_UNIVERSAL_TIME_OFFSET ( 1, 0, .AHEAD. ) ;
#112 = VECTOR ( 'NONE', #236, 1000.000000000000000 ) ;
#113 = ORIENTED_EDGE ( 'NONE', *, *, #240, .T. ) ;
#114 = AXIS2_PLACEMENT_3D ( 'NONE', #44, #105, #25 ) ;
#115 = APPLICATION_PROTOCOL_DEFINITION ( 'international standard', 'config_control_design', 1994, #139 ) ;
#116 = ORIENTED_EDGE ( 'NONE', *, *, #17, .T. ) ;
#117 = FACE_OUTER_BOUND ( 'NONE', #244, .T. ) ;
#118 = DIRECTION ( 'NONE',  ( -0.000000000000000000, -0.000000000000000000, -1.000000000000000000 ) ) ;
#119 = FACE_OUTER_BOUND ( 'NONE', #132, .T. ) ;
#120 = PRODUCT_RELATED_PRODUCT_CATEGORY ( 'detail', '', ( #24 ) ) ;
#121 = DIRECTION ( 'NONE',  ( 1.000000000000000000, 0.000000000000000000, 0.000000000000000000 ) ) ;
#122 = ORIENTED_EDGE ( 'NONE', *, *, #97, .F. ) ;
#123 = CYLINDRICAL_SURFACE ( 'NONE', #222, 5.000000000000000000 ) ;
#124 = CARTESIAN_POINT ( 'NONE',  ( 0.000000000000000000, 0.000000000000000000, 5.000000000000000000 ) ) ;
#125 = DESIGN_CONTEXT ( 'detailed design', #139, 'design' ) ;
#126 = DIRECTION ( 'NONE',  ( -0.000000000000000000, -0.000000000000000000, -1.000000000000000000 ) ) ;
#127 = APPROVAL ( #150, 'NEURÈENÝ' ) ;
#128 = PERSON_AND_ORGANIZATION_ROLE ( 'design_supplier' ) ;
#129 = CARTESIAN_POINT ( 'NONE',  ( 0.000000000000000000, 0.000000000000000000, 0.000000000000000000 ) ) ;
#130 = AXIS2_PLACEMENT_3D ( 'NONE', #82, #42, #20 ) ;
#131 = DATE_AND_TIME ( #248, #184 ) ;
#132 = EDGE_LOOP ( 'NONE', ( #39, #143, #90, #3 ) ) ;
#133 = ORIENTED_EDGE ( 'NONE', *, *, #102, .T. ) ;
#134 = EDGE_CURVE ( 'NONE', #176, #203, #157, .T. ) ;
#135 = APPROVAL_DATE_TIME ( #251, #127 ) ;
#136 = CARTESIAN_POINT ( 'NONE',  ( -8.000000000000000000, 0.000000000000000000, 5.000000000000000000 ) ) ;
#137 = EDGE_CURVE ( 'NONE', #77, #36, #237, .T. ) ;
#138 = CARTESIAN_POINT ( 'NONE',  ( -5.000000000000000000, 0.000000000000000000, 5.000000000000000000 ) ) ;
#139 = APPLICATION_CONTEXT ( 'configuration controlled 3d designs of mechanical parts and assemblies' ) ;
#140 = EDGE_CURVE ( 'NONE', #176, #77, #188, .T. ) ;
#141 = LOCAL_TIME ( 11, 16, 29.00000000000000000, #69 ) ;
#142 = EDGE_LOOP ( 'NONE', ( #122, #231 ) ) ;
#143 = ORIENTED_EDGE ( 'NONE', *, *, #80, .T. ) ;
#144 = DIRECTION ( 'NONE',  ( 0.000000000000000000, 0.000000000000000000, 1.000000000000000000 ) ) ;
#145 = ADVANCED_FACE ( 'NONE', ( #119 ), #199, .T. ) ;
#146 = APPROVAL_DATE_TIME ( #131, #183 ) ;
#147 = DIRECTION ( 'NONE',  ( -0.000000000000000000, -0.000000000000000000, -1.000000000000000000 ) ) ;
#148 = PERSON_AND_ORGANIZATION ( #4, #108 ) ;
#149 = CARTESIAN_POINT ( 'NONE',  ( -8.000000000000000000, 0.000000000000000000, 5.000000000000000000 ) ) ;
#150 = APPROVAL_STATUS ( 'not_yet_approved' ) ;
#151 = DIRECTION ( 'NONE',  ( 1.000000000000000000, 0.000000000000000000, 0.000000000000000000 ) ) ;
#152 = APPROVAL_STATUS ( 'not_yet_approved' ) ;
#153 = ORIENTED_EDGE ( 'NONE', *, *, #134, .F. ) ;
#154 = APPROVAL_ROLE ( '' ) ;
#155 = ORIENTED_EDGE ( 'NONE', *, *, #137, .T. ) ;
#156 = DIRECTION ( 'NONE',  ( 0.000000000000000000, 0.000000000000000000, 1.000000000000000000 ) ) ;
#157 = LINE ( 'NONE', #159, #112 ) ;
#158 = AXIS2_PLACEMENT_3D ( 'NONE', #129, #8, #73 ) ;
#159 = CARTESIAN_POINT ( 'NONE',  ( 8.000000000000000000, 9.797174393178825657E-16, 5.000000000000000000 ) ) ;
#160 = CYLINDRICAL_SURFACE ( 'NONE', #114, 8.000000000000000000 ) ;
#161 = DIRECTION ( 'NONE',  ( 1.000000000000000000, 0.000000000000000000, 0.000000000000000000 ) ) ;
#162 = AXIS2_PLACEMENT_3D ( 'NONE', #194, #35, #229 ) ;
#163 = ORIENTED_EDGE ( 'NONE', *, *, #255, .T. ) ;
#164 = CIRCLE ( 'NONE', #87, 8.000000000000000000 ) ;
#165 = DIRECTION ( 'NONE',  ( -1.000000000000000000, 0.000000000000000000, 0.000000000000000000 ) ) ;
#166 = CC_DESIGN_PERSON_AND_ORGANIZATION_ASSIGNMENT ( #224, #207, ( #49 ) ) ;
#167 = APPROVAL_ROLE ( '' ) ;
#168 = CYLINDRICAL_SURFACE ( 'NONE', #46, 8.000000000000000000 ) ;
#169 = PERSON_AND_ORGANIZATION ( #4, #108 ) ;
#170 = CARTESIAN_POINT ( 'NONE',  ( -5.000000000000000000, 0.000000000000000000, 100.0000000000000000 ) ) ;
#171 = CIRCLE ( 'NONE', #189, 5.000000000000000000 ) ;
#172 = DIRECTION ( 'NONE',  ( 0.000000000000000000, 0.000000000000000000, 1.000000000000000000 ) ) ;
#173 = COORDINATED_UNIVERSAL_TIME_OFFSET ( 1, 0, .AHEAD. ) ;
#174 = ORIENTED_EDGE ( 'NONE', *, *, #102, .F. ) ;
#175 = DATE_AND_TIME ( #213, #141 ) ;
#176 = VERTEX_POINT ( 'NONE', #41 ) ;
#177 = DIRECTION ( 'NONE',  ( 0.000000000000000000, 0.000000000000000000, 1.000000000000000000 ) ) ;
#178 = AXIS2_PLACEMENT_3D ( 'NONE', #180, #2, #121 ) ;
#179 = EDGE_CURVE ( 'NONE', #36, #203, #212, .T. ) ;
#180 = CARTESIAN_POINT ( 'NONE',  ( 0.000000000000000000, 0.000000000000000000, 0.000000000000000000 ) ) ;
#181 = MANIFOLD_SOLID_BREP ( 'Pøidat vysunutím3', #22 ) ;
#182 = AXIS2_PLACEMENT_3D ( 'NONE', #241, #144, #161 ) ;
#183 = APPROVAL ( #30, 'NEURÈENÝ' ) ;
#184 = LOCAL_TIME ( 11, 16, 29.00000000000000000, #173 ) ;
#185 = EDGE_CURVE ( 'NONE', #201, #15, #37, .T. ) ;
#186 = DIRECTION ( 'NONE',  ( 0.000000000000000000, 0.000000000000000000, 1.000000000000000000 ) ) ;
#187 = APPROVAL ( #152, 'NEURÈENÝ' ) ;
#188 = CIRCLE ( 'NONE', #65, 8.000000000000000000 ) ;
#189 = AXIS2_PLACEMENT_3D ( 'NONE', #84, #186, #6 ) ;
#190 = CALENDAR_DATE ( 2023, 13, 2 ) ;
#191 = CC_DESIGN_PERSON_AND_ORGANIZATION_ASSIGNMENT ( #169, #38, ( #24 ) ) ;
#192 = PLANE ( 'NONE',  #158 ) ;
#193 = ORIENTED_EDGE ( 'NONE', *, *, #140, .F. ) ;
#194 = CARTESIAN_POINT ( 'NONE',  ( 0.000000000000000000, 0.000000000000000000, 5.000000000000000000 ) ) ;
#195 = ORIENTED_EDGE ( 'NONE', *, *, #140, .T. ) ;
#196 = COORDINATED_UNIVERSAL_TIME_OFFSET ( 1, 0, .AHEAD. ) ;
#197 = CARTESIAN_POINT ( 'NONE',  ( -8.000000000000000000, 0.000000000000000000, 0.000000000000000000 ) ) ;
#198 = SECURITY_CLASSIFICATION ( '', '', #32 ) ;
#199 = CYLINDRICAL_SURFACE ( 'NONE', #130, 5.000000000000000000 ) ;
#200 = CARTESIAN_POINT ( 'NONE',  ( 5.000000000000000000, 6.123233995736766282E-16, 100.0000000000000000 ) ) ;
#201 = VERTEX_POINT ( 'NONE', #200 ) ;
#202 = AXIS2_PLACEMENT_3D ( 'NONE', #56, #52, #76 ) ;
#203 = VERTEX_POINT ( 'NONE', #223 ) ;
#204 = DIRECTION ( 'NONE',  ( 0.000000000000000000, 0.000000000000000000, 1.000000000000000000 ) ) ;
#205 = PERSON_AND_ORGANIZATION ( #4, #108 ) ;
#206 = APPROVAL_PERSON_ORGANIZATION ( #74, #183, #154 ) ;
#207 = PERSON_AND_ORGANIZATION_ROLE ( 'creator' ) ;
#208 = EDGE_LOOP ( 'NONE', ( #153, #14, #155, #211 ) ) ;
#209 = PERSON_AND_ORGANIZATION ( #4, #108 ) ;
#210 = CARTESIAN_POINT ( 'NONE',  ( 0.000000000000000000, 0.000000000000000000, 5.000000000000000000 ) ) ;
#211 = ORIENTED_EDGE ( 'NONE', *, *, #179, .T. ) ;
#212 = CIRCLE ( 'NONE', #178, 8.000000000000000000 ) ;
#213 = CALENDAR_DATE ( 2023, 13, 2 ) ;
#214 = ORIENTED_EDGE ( 'NONE', *, *, #80, .F. ) ;
#215 = PLANE ( 'NONE',  #162 ) ;
#216 = CC_DESIGN_APPROVAL ( #127, ( #198 ) ) ;
#217 = DIRECTION ( 'NONE',  ( 1.000000000000000000, 0.000000000000000000, 0.000000000000000000 ) ) ;
#218 = ADVANCED_FACE ( 'NONE', ( #5 ), #86, .T. ) ;
#219 = PRODUCT_DEFINITION_SHAPE ( 'NONE', 'NONE',  #67 ) ;
#220 = EDGE_LOOP ( 'NONE', ( #214, #85, #116, #94 ) ) ;
#221 = FACE_OUTER_BOUND ( 'NONE', #208, .T. ) ;
#222 = AXIS2_PLACEMENT_3D ( 'NONE', #243, #88, #165 ) ;
#223 = CARTESIAN_POINT ( 'NONE',  ( 8.000000000000000000, 9.797174393178825657E-16, 0.000000000000000000 ) ) ;
#224 = PERSON_AND_ORGANIZATION ( #4, #108 ) ;
#225 = EDGE_LOOP ( 'NONE', ( #95, #174 ) ) ;
#226 = CC_DESIGN_DATE_AND_TIME_ASSIGNMENT ( #230, #72, ( #67 ) ) ;
#227 = LINE ( 'NONE', #51, #7 ) ;
#228 = APPROVAL_ROLE ( '' ) ;
#229 = DIRECTION ( 'NONE',  ( 1.000000000000000000, 0.000000000000000000, -0.000000000000000000 ) ) ;
#230 = DATE_AND_TIME ( #13, #31 ) ;
#231 = ORIENTED_EDGE ( 'NONE', *, *, #62, .F. ) ;
#232 = VECTOR ( 'NONE', #118, 1000.000000000000000 ) ;
#233 = LINE ( 'NONE', #250, #96 ) ;
#234 = ADVANCED_FACE ( 'NONE', ( #101 ), #123, .T. ) ;
#235 = APPROVAL_PERSON_ORGANIZATION ( #91, #127, #228 ) ;
#236 = DIRECTION ( 'NONE',  ( -0.000000000000000000, -0.000000000000000000, -1.000000000000000000 ) ) ;
#237 = LINE ( 'NONE', #136, #232 ) ;
#238 =( NAMED_UNIT ( * ) PLANE_ANGLE_UNIT ( ) SI_UNIT ( $, .RADIAN. ) );
#239 = CARTESIAN_POINT ( 'NONE',  ( 0.000000000000000000, 0.000000000000000000, 5.000000000000000000 ) ) ;
#240 = EDGE_CURVE ( 'NONE', #77, #176, #61, .T. ) ;
#241 = CARTESIAN_POINT ( 'NONE',  ( 0.000000000000000000, 0.000000000000000000, 100.0000000000000000 ) ) ;
#242 = AXIS2_PLACEMENT_3D ( 'NONE', #239, #204, #29 ) ;
#243 = CARTESIAN_POINT ( 'NONE',  ( 0.000000000000000000, 0.000000000000000000, 100.0000000000000000 ) ) ;
#244 = EDGE_LOOP ( 'NONE', ( #193, #27, #133, #92 ) ) ;
#245 = DIRECTION ( 'NONE',  ( 1.000000000000000000, 0.000000000000000000, 0.000000000000000000 ) ) ;
#246 = LOCAL_TIME ( 11, 16, 29.00000000000000000, #196 ) ;
#247 = DIRECTION ( 'NONE',  ( 0.000000000000000000, 0.000000000000000000, 1.000000000000000000 ) ) ;
#248 = CALENDAR_DATE ( 2023, 13, 2 ) ;
#249 = APPROVAL_DATE_TIME ( #175, #187 ) ;
#250 = CARTESIAN_POINT ( 'NONE',  ( -5.000000000000000000, 0.000000000000000000, 100.0000000000000000 ) ) ;
#251 = DATE_AND_TIME ( #253, #246 ) ;
#252 = ADVANCED_FACE ( 'NONE', ( #221 ), #160, .T. ) ;
#253 = CALENDAR_DATE ( 2023, 13, 2 ) ;
#254 = CIRCLE ( 'NONE', #99, 5.000000000000000000 ) ;
#255 = EDGE_CURVE ( 'NONE', #15, #201, #171, .T. ) ;
ENDSEC;
END-ISO-10303-21;
