ISO-10303-21;
HEADER;
FILE_DESCRIPTION (( 'STEP AP203' ),
    '1' );
FILE_NAME ('6c14.STEP',
    '2023-02-13T09:18:21',
    ( '' ),
    ( '' ),
    'SwSTEP 2.0',
    'SolidWorks 2019',
    '' );
FILE_SCHEMA (( 'CONFIG_CONTROL_DESIGN' ));
ENDSEC;

DATA;
#1 = ADVANCED_FACE ( 'NONE', ( #147 ), #242, .T. ) ;
#2 = PERSON ( 'NEURÈENÝ', 'NEURÈENÝ', 'NEURÈENÝ', ('NEURÈENÝ'), ('NEURÈENÝ'), ('NEURÈENÝ') ) ;
#3 = COORDINATED_UNIVERSAL_TIME_OFFSET ( 1, 0, .AHEAD. ) ;
#4 = ORIENTED_EDGE ( 'NONE', *, *, #247, .F. ) ;
#5 = CARTESIAN_POINT ( 'NONE',  ( 0.000000000000000000, 0.000000000000000000, 200.0000000000000000 ) ) ;
#6 = ORIENTED_EDGE ( 'NONE', *, *, #171, .T. ) ;
#7 = CARTESIAN_POINT ( 'NONE',  ( 0.000000000000000000, 0.000000000000000000, 7.000000000000000000 ) ) ;
#8 = EDGE_CURVE ( 'NONE', #42, #70, #168, .T. ) ;
#9 = CARTESIAN_POINT ( 'NONE',  ( 0.000000000000000000, 0.000000000000000000, 0.000000000000000000 ) ) ;
#10 = CARTESIAN_POINT ( 'NONE',  ( -6.000000000000000888, 0.000000000000000000, 200.0000000000000000 ) ) ;
#11 = DIRECTION ( 'NONE',  ( -0.000000000000000000, -0.000000000000000000, -1.000000000000000000 ) ) ;
#12 = AXIS2_PLACEMENT_3D ( 'NONE', #215, #251, #108 ) ;
#13 =( LENGTH_UNIT ( ) NAMED_UNIT ( * ) SI_UNIT ( .MILLI., .METRE. ) );
#14 =( NAMED_UNIT ( * ) PLANE_ANGLE_UNIT ( ) SI_UNIT ( $, .RADIAN. ) );
#15 = CC_DESIGN_APPROVAL ( #112, ( #129 ) ) ;
#16 = PERSON_AND_ORGANIZATION ( #2, #153 ) ;
#17 = ORIENTED_EDGE ( 'NONE', *, *, #151, .T. ) ;
#18 = DATE_TIME_ROLE ( 'creation_date' ) ;
#19 = ORIENTED_EDGE ( 'NONE', *, *, #80, .T. ) ;
#20 = DATE_AND_TIME ( #239, #193 ) ;
#21 = CC_DESIGN_APPROVAL ( #182, ( #110 ) ) ;
#22 = SECURITY_CLASSIFICATION_LEVEL ( 'unclassified' ) ;
#23 = PERSON_AND_ORGANIZATION_ROLE ( 'creator' ) ;
#24 = PRODUCT_DEFINITION_SHAPE ( 'NONE', 'NONE',  #241 ) ;
#25 = CARTESIAN_POINT ( 'NONE',  ( -9.000000000000000000, 0.000000000000000000, 0.000000000000000000 ) ) ;
#26 = DIRECTION ( 'NONE',  ( 1.000000000000000000, 0.000000000000000000, 0.000000000000000000 ) ) ;
#27 = DIRECTION ( 'NONE',  ( 0.000000000000000000, 0.000000000000000000, 1.000000000000000000 ) ) ;
#28 = VECTOR ( 'NONE', #212, 1000.000000000000000 ) ;
#29 = CARTESIAN_POINT ( 'NONE',  ( 9.000000000000000000, 1.102182119232617714E-15, 0.000000000000000000 ) ) ;
#30 = CC_DESIGN_PERSON_AND_ORGANIZATION_ASSIGNMENT ( #43, #237, ( #124 ) ) ;
#31 = ORIENTED_EDGE ( 'NONE', *, *, #46, .T. ) ;
#32 = DIRECTION ( 'NONE',  ( -0.000000000000000000, -0.000000000000000000, -1.000000000000000000 ) ) ;
#33 = ADVANCED_FACE ( 'NONE', ( #103 ), #102, .T. ) ;
#34 = DIRECTION ( 'NONE',  ( -1.000000000000000000, 0.000000000000000000, 0.000000000000000000 ) ) ;
#35 = CYLINDRICAL_SURFACE ( 'NONE', #249, 9.000000000000000000 ) ;
#36 = AXIS2_PLACEMENT_3D ( 'NONE', #198, #235, #176 ) ;
#37 = CARTESIAN_POINT ( 'NONE',  ( 0.000000000000000000, 0.000000000000000000, 7.000000000000000000 ) ) ;
#38 = APPROVAL_DATE_TIME ( #220, #182 ) ;
#39 = CC_DESIGN_SECURITY_CLASSIFICATION ( #110, ( #129 ) ) ;
#40 = PERSON_AND_ORGANIZATION_ROLE ( 'design_supplier' ) ;
#41 = APPROVAL_ROLE ( '' ) ;
#42 = VERTEX_POINT ( 'NONE', #25 ) ;
#43 = PERSON_AND_ORGANIZATION ( #2, #153 ) ;
#44 = LOCAL_TIME ( 10, 18, 21.00000000000000000, #161 ) ;
#45 = COORDINATED_UNIVERSAL_TIME_OFFSET ( 1, 0, .AHEAD. ) ;
#46 = EDGE_CURVE ( 'NONE', #230, #119, #98, .T. ) ;
#47 = DIRECTION ( 'NONE',  ( 0.000000000000000000, 0.000000000000000000, 1.000000000000000000 ) ) ;
#48 = APPROVAL_PERSON_ORGANIZATION ( #185, #112, #99 ) ;
#49 = VERTEX_POINT ( 'NONE', #91 ) ;
#50 = ORIENTED_EDGE ( 'NONE', *, *, #75, .F. ) ;
#51 = CC_DESIGN_PERSON_AND_ORGANIZATION_ASSIGNMENT ( #16, #23, ( #129 ) ) ;
#52 = ORIENTED_EDGE ( 'NONE', *, *, #171, .F. ) ;
#53 = CARTESIAN_POINT ( 'NONE',  ( 9.000000000000000000, 1.102182119232617714E-15, 7.000000000000000000 ) ) ;
#54 = LINE ( 'NONE', #10, #217 ) ;
#55 = DIRECTION ( 'NONE',  ( 0.000000000000000000, 0.000000000000000000, 1.000000000000000000 ) ) ;
#56 = APPLICATION_CONTEXT ( 'configuration controlled 3d designs of mechanical parts and assemblies' ) ;
#57 = DIRECTION ( 'NONE',  ( 1.000000000000000000, 0.000000000000000000, 0.000000000000000000 ) ) ;
#58 = CC_DESIGN_PERSON_AND_ORGANIZATION_ASSIGNMENT ( #84, #96, ( #110 ) ) ;
#59 = DATE_AND_TIME ( #101, #202 ) ;
#60 = CIRCLE ( 'NONE', #138, 9.000000000000000000 ) ;
#61 = APPROVAL_DATE_TIME ( #121, #112 ) ;
#62 = MANIFOLD_SOLID_BREP ( 'Pøidat vysunutím3', #190 ) ;
#63 = ORIENTED_EDGE ( 'NONE', *, *, #247, .T. ) ;
#64 = CIRCLE ( 'NONE', #128, 9.000000000000000000 ) ;
#65 =( GEOMETRIC_REPRESENTATION_CONTEXT ( 3 ) GLOBAL_UNCERTAINTY_ASSIGNED_CONTEXT ( ( #127 ) ) GLOBAL_UNIT_ASSIGNED_CONTEXT ( ( #13, #14, #250 ) ) REPRESENTATION_CONTEXT ( 'NONE', 'WORKASPACE' ) );
#66 = CC_DESIGN_PERSON_AND_ORGANIZATION_ASSIGNMENT ( #123, #141, ( #241 ) ) ;
#67 = APPLICATION_PROTOCOL_DEFINITION ( 'international standard', 'config_control_design', 1994, #192 ) ;
#68 = CARTESIAN_POINT ( 'NONE',  ( -9.000000000000000000, 0.000000000000000000, 7.000000000000000000 ) ) ;
#69 = AXIS2_PLACEMENT_3D ( 'NONE', #9, #167, #150 ) ;
#70 = VERTEX_POINT ( 'NONE', #29 ) ;
#71 = DIRECTION ( 'NONE',  ( -0.000000000000000000, -0.000000000000000000, -1.000000000000000000 ) ) ;
#72 = DESIGN_CONTEXT ( 'detailed design', #192, 'design' ) ;
#73 = FACE_OUTER_BOUND ( 'NONE', #90, .T. ) ;
#74 = ORIENTED_EDGE ( 'NONE', *, *, #46, .F. ) ;
#75 = EDGE_CURVE ( 'NONE', #173, #245, #157, .T. ) ;
#76 = CARTESIAN_POINT ( 'NONE',  ( 0.000000000000000000, 0.000000000000000000, 0.000000000000000000 ) ) ;
#77 = APPROVAL_PERSON_ORGANIZATION ( #184, #160, #41 ) ;
#78 = AXIS2_PLACEMENT_3D ( 'NONE', #125, #188, #26 ) ;
#79 = CARTESIAN_POINT ( 'NONE',  ( 6.000000000000000888, 7.347880794884120722E-16, 200.0000000000000000 ) ) ;
#80 = EDGE_CURVE ( 'NONE', #223, #42, #89, .T. ) ;
#81 = CARTESIAN_POINT ( 'NONE',  ( 6.000000000000000888, 7.347880794884120722E-16, 7.000000000000000000 ) ) ;
#82 = LOCAL_TIME ( 10, 18, 21.00000000000000000, #45 ) ;
#83 = DIRECTION ( 'NONE',  ( 1.000000000000000000, 0.000000000000000000, 0.000000000000000000 ) ) ;
#84 = PERSON_AND_ORGANIZATION ( #2, #153 ) ;
#85 = ORIENTED_EDGE ( 'NONE', *, *, #8, .F. ) ;
#86 = CALENDAR_DATE ( 2023, 13, 2 ) ;
#87 = EDGE_LOOP ( 'NONE', ( #189, #74 ) ) ;
#88 = APPROVAL_STATUS ( 'not_yet_approved' ) ;
#89 = LINE ( 'NONE', #68, #28 ) ;
#90 = EDGE_LOOP ( 'NONE', ( #85, #244 ) ) ;
#91 = CARTESIAN_POINT ( 'NONE',  ( 9.000000000000000000, 1.102182119232617714E-15, 7.000000000000000000 ) ) ;
#92 = DIRECTION ( 'NONE',  ( 1.000000000000000000, 0.000000000000000000, 0.000000000000000000 ) ) ;
#93 = DIRECTION ( 'NONE',  ( 0.000000000000000000, 0.000000000000000000, 1.000000000000000000 ) ) ;
#94 = DIRECTION ( 'NONE',  ( 0.000000000000000000, 0.000000000000000000, 1.000000000000000000 ) ) ;
#95 = FACE_OUTER_BOUND ( 'NONE', #238, .T. ) ;
#96 = PERSON_AND_ORGANIZATION_ROLE ( 'classification_officer' ) ;
#97 = ORIENTED_EDGE ( 'NONE', *, *, #213, .T. ) ;
#98 = CIRCLE ( 'NONE', #78, 6.000000000000000888 ) ;
#99 = APPROVAL_ROLE ( '' ) ;
#100 = EDGE_CURVE ( 'NONE', #223, #49, #233, .T. ) ;
#101 = CALENDAR_DATE ( 2023, 13, 2 ) ;
#102 = CYLINDRICAL_SURFACE ( 'NONE', #105, 6.000000000000000888 ) ;
#103 = FACE_OUTER_BOUND ( 'NONE', #211, .T. ) ;
#104 = DIRECTION ( 'NONE',  ( 0.000000000000000000, 0.000000000000000000, 1.000000000000000000 ) ) ;
#105 = AXIS2_PLACEMENT_3D ( 'NONE', #191, #130, #132 ) ;
#106 = DIRECTION ( 'NONE',  ( 0.000000000000000000, 0.000000000000000000, 1.000000000000000000 ) ) ;
#107 = CARTESIAN_POINT ( 'NONE',  ( 0.000000000000000000, 0.000000000000000000, 0.000000000000000000 ) ) ;
#108 = DIRECTION ( 'NONE',  ( 1.000000000000000000, 0.000000000000000000, -0.000000000000000000 ) ) ;
#109 = CARTESIAN_POINT ( 'NONE',  ( -9.000000000000000000, 0.000000000000000000, 7.000000000000000000 ) ) ;
#110 = SECURITY_CLASSIFICATION ( '', '', #22 ) ;
#111 = CARTESIAN_POINT ( 'NONE',  ( 0.000000000000000000, 0.000000000000000000, 7.000000000000000000 ) ) ;
#112 = APPROVAL ( #88, 'NEURÈENÝ' ) ;
#113 = DIRECTION ( 'NONE',  ( -0.000000000000000000, -0.000000000000000000, -1.000000000000000000 ) ) ;
#114 = AXIS2_PLACEMENT_3D ( 'NONE', #7, #27, #92 ) ;
#115 = DIRECTION ( 'NONE',  ( 1.000000000000000000, 0.000000000000000000, 0.000000000000000000 ) ) ;
#116 = CIRCLE ( 'NONE', #219, 6.000000000000000888 ) ;
#117 = COORDINATED_UNIVERSAL_TIME_OFFSET ( 1, 0, .AHEAD. ) ;
#118 = APPROVAL_PERSON_ORGANIZATION ( #254, #182, #137 ) ;
#119 = VERTEX_POINT ( 'NONE', #172 ) ;
#120 = DATE_TIME_ROLE ( 'classification_date' ) ;
#121 = DATE_AND_TIME ( #206, #82 ) ;
#122 = ADVANCED_FACE ( 'NONE', ( #149 ), #210, .T. ) ;
#123 = PERSON_AND_ORGANIZATION ( #2, #153 ) ;
#124 = PRODUCT ( '6c14', '6c14', '', ( #248 ) ) ;
#125 = CARTESIAN_POINT ( 'NONE',  ( 0.000000000000000000, 0.000000000000000000, 7.000000000000000000 ) ) ;
#126 = EDGE_LOOP ( 'NONE', ( #4, #203, #31, #181 ) ) ;
#127 = UNCERTAINTY_MEASURE_WITH_UNIT (LENGTH_MEASURE( 1.000000000000000082E-05 ), #13, 'distance_accuracy_value', 'NONE');
#128 = AXIS2_PLACEMENT_3D ( 'NONE', #177, #94, #83 ) ;
#129 = PRODUCT_DEFINITION_FORMATION_WITH_SPECIFIED_SOURCE ( 'LIBOVOLNÝ', '', #124, .NOT_KNOWN. ) ;
#130 = DIRECTION ( 'NONE',  ( -0.000000000000000000, -0.000000000000000000, -1.000000000000000000 ) ) ;
#131 = EDGE_LOOP ( 'NONE', ( #52, #240, #19, #152 ) ) ;
#132 = DIRECTION ( 'NONE',  ( -1.000000000000000000, 0.000000000000000000, 0.000000000000000000 ) ) ;
#133 = ADVANCED_FACE ( 'NONE', ( #73 ), #232, .F. ) ;
#134 = DIRECTION ( 'NONE',  ( -0.000000000000000000, -0.000000000000000000, -1.000000000000000000 ) ) ;
#135 = LINE ( 'NONE', #79, #229 ) ;
#136 = APPLICATION_PROTOCOL_DEFINITION ( 'international standard', 'config_control_design', 1994, #56 ) ;
#137 = APPROVAL_ROLE ( '' ) ;
#138 = AXIS2_PLACEMENT_3D ( 'NONE', #159, #179, #115 ) ;
#139 = CALENDAR_DATE ( 2023, 13, 2 ) ;
#140 = ORIENTED_EDGE ( 'NONE', *, *, #165, .F. ) ;
#141 = PERSON_AND_ORGANIZATION_ROLE ( 'creator' ) ;
#142 = ORIENTED_EDGE ( 'NONE', *, *, #165, .T. ) ;
#143 = AXIS2_PLACEMENT_3D ( 'NONE', #166, #106, #207 ) ;
#144 = DATE_AND_TIME ( #86, #44 ) ;
#145 = CC_DESIGN_PERSON_AND_ORGANIZATION_ASSIGNMENT ( #253, #40, ( #129 ) ) ;
#146 = DIRECTION ( 'NONE',  ( 1.000000000000000000, 0.000000000000000000, -0.000000000000000000 ) ) ;
#147 = FACE_OUTER_BOUND ( 'NONE', #126, .T. ) ;
#148 = CIRCLE ( 'NONE', #36, 6.000000000000000888 ) ;
#149 = FACE_OUTER_BOUND ( 'NONE', #162, .T. ) ;
#150 = DIRECTION ( 'NONE',  ( 1.000000000000000000, 0.000000000000000000, 0.000000000000000000 ) ) ;
#151 = EDGE_CURVE ( 'NONE', #119, #230, #116, .T. ) ;
#152 = ORIENTED_EDGE ( 'NONE', *, *, #8, .T. ) ;
#153 = ORGANIZATION ( 'NEURÈENÝ', 'NEURÈENÝ', '' ) ;
#154 = DIRECTION ( 'NONE',  ( 1.000000000000000000, 0.000000000000000000, 0.000000000000000000 ) ) ;
#155 = ADVANCED_FACE ( 'NONE', ( #158 ), #35, .T. ) ;
#156 = DIRECTION ( 'NONE',  ( -1.000000000000000000, 0.000000000000000000, 0.000000000000000000 ) ) ;
#157 = CIRCLE ( 'NONE', #143, 6.000000000000000888 ) ;
#158 = FACE_OUTER_BOUND ( 'NONE', #131, .T. ) ;
#159 = CARTESIAN_POINT ( 'NONE',  ( 0.000000000000000000, 0.000000000000000000, 7.000000000000000000 ) ) ;
#160 = APPROVAL ( #224, 'NEURÈENÝ' ) ;
#161 = COORDINATED_UNIVERSAL_TIME_OFFSET ( 1, 0, .AHEAD. ) ;
#162 = EDGE_LOOP ( 'NONE', ( #255, #63 ) ) ;
#163 = CC_DESIGN_DATE_AND_TIME_ASSIGNMENT ( #20, #18, ( #241 ) ) ;
#164 = AXIS2_PLACEMENT_3D ( 'NONE', #5, #71, #234 ) ;
#165 = EDGE_CURVE ( 'NONE', #49, #223, #60, .T. ) ;
#166 = CARTESIAN_POINT ( 'NONE',  ( 0.000000000000000000, 0.000000000000000000, 200.0000000000000000 ) ) ;
#167 = DIRECTION ( 'NONE',  ( 0.000000000000000000, 0.000000000000000000, 1.000000000000000000 ) ) ;
#168 = CIRCLE ( 'NONE', #69, 9.000000000000000000 ) ;
#169 = DIRECTION ( 'NONE',  ( 1.000000000000000000, 0.000000000000000000, -0.000000000000000000 ) ) ;
#170 = AXIS2_PLACEMENT_3D ( 'NONE', #37, #134, #34 ) ;
#171 = EDGE_CURVE ( 'NONE', #49, #70, #180, .T. ) ;
#172 = CARTESIAN_POINT ( 'NONE',  ( -6.000000000000000888, 0.000000000000000000, 7.000000000000000000 ) ) ;
#173 = VERTEX_POINT ( 'NONE', #174 ) ;
#174 = CARTESIAN_POINT ( 'NONE',  ( -6.000000000000000888, 0.000000000000000000, 200.0000000000000000 ) ) ;
#175 = VECTOR ( 'NONE', #32, 1000.000000000000000 ) ;
#176 = DIRECTION ( 'NONE',  ( 1.000000000000000000, 0.000000000000000000, 0.000000000000000000 ) ) ;
#177 = CARTESIAN_POINT ( 'NONE',  ( 0.000000000000000000, 0.000000000000000000, 0.000000000000000000 ) ) ;
#178 = AXIS2_PLACEMENT_3D ( 'NONE', #208, #104, #169 ) ;
#179 = DIRECTION ( 'NONE',  ( 0.000000000000000000, 0.000000000000000000, 1.000000000000000000 ) ) ;
#180 = LINE ( 'NONE', #53, #175 ) ;
#181 = ORIENTED_EDGE ( 'NONE', *, *, #252, .F. ) ;
#182 = APPROVAL ( #205, 'NEURÈENÝ' ) ;
#183 = LOCAL_TIME ( 10, 18, 21.00000000000000000, #117 ) ;
#184 = PERSON_AND_ORGANIZATION ( #2, #153 ) ;
#185 = PERSON_AND_ORGANIZATION ( #2, #153 ) ;
#186 = ADVANCED_BREP_SHAPE_REPRESENTATION ( '6c14', ( #62, #187 ), #65 ) ;
#187 = AXIS2_PLACEMENT_3D ( 'NONE', #76, #55, #57 ) ;
#188 = DIRECTION ( 'NONE',  ( 0.000000000000000000, 0.000000000000000000, 1.000000000000000000 ) ) ;
#189 = ORIENTED_EDGE ( 'NONE', *, *, #151, .F. ) ;
#190 = CLOSED_SHELL ( 'NONE', ( #1, #195, #155, #218, #133, #33, #122 ) ) ;
#191 = CARTESIAN_POINT ( 'NONE',  ( 0.000000000000000000, 0.000000000000000000, 200.0000000000000000 ) ) ;
#192 = APPLICATION_CONTEXT ( 'configuration controlled 3d designs of mechanical parts and assemblies' ) ;
#193 = LOCAL_TIME ( 10, 18, 21.00000000000000000, #3 ) ;
#194 = EDGE_LOOP ( 'NONE', ( #243, #142 ) ) ;
#195 = ADVANCED_FACE ( 'NONE', ( #95 ), #201, .T. ) ;
#196 = PLANE ( 'NONE',  #12 ) ;
#197 = CARTESIAN_POINT ( 'NONE',  ( 6.000000000000000888, 7.347880794884120722E-16, 200.0000000000000000 ) ) ;
#198 = CARTESIAN_POINT ( 'NONE',  ( 0.000000000000000000, 0.000000000000000000, 200.0000000000000000 ) ) ;
#199 = CC_DESIGN_DATE_AND_TIME_ASSIGNMENT ( #59, #120, ( #110 ) ) ;
#200 = AXIS2_PLACEMENT_3D ( 'NONE', #107, #93, #146 ) ;
#201 = CYLINDRICAL_SURFACE ( 'NONE', #170, 9.000000000000000000 ) ;
#202 = LOCAL_TIME ( 10, 18, 21.00000000000000000, #204 ) ;
#203 = ORIENTED_EDGE ( 'NONE', *, *, #221, .T. ) ;
#204 = COORDINATED_UNIVERSAL_TIME_OFFSET ( 1, 0, .AHEAD. ) ;
#205 = APPROVAL_STATUS ( 'not_yet_approved' ) ;
#206 = CALENDAR_DATE ( 2023, 13, 2 ) ;
#207 = DIRECTION ( 'NONE',  ( 1.000000000000000000, 0.000000000000000000, 0.000000000000000000 ) ) ;
#208 = CARTESIAN_POINT ( 'NONE',  ( 0.000000000000000000, 0.000000000000000000, 200.0000000000000000 ) ) ;
#209 = CC_DESIGN_APPROVAL ( #160, ( #241 ) ) ;
#210 = PLANE ( 'NONE',  #178 ) ;
#211 = EDGE_LOOP ( 'NONE', ( #225, #50, #231, #17 ) ) ;
#212 = DIRECTION ( 'NONE',  ( -0.000000000000000000, -0.000000000000000000, -1.000000000000000000 ) ) ;
#213 = EDGE_CURVE ( 'NONE', #70, #42, #64, .T. ) ;
#214 = FACE_OUTER_BOUND ( 'NONE', #194, .T. ) ;
#215 = CARTESIAN_POINT ( 'NONE',  ( 0.000000000000000000, 0.000000000000000000, 7.000000000000000000 ) ) ;
#216 = FACE_BOUND ( 'NONE', #87, .T. ) ;
#217 = VECTOR ( 'NONE', #11, 1000.000000000000000 ) ;
#218 = ADVANCED_FACE ( 'NONE', ( #216, #214 ), #196, .T. ) ;
#219 = AXIS2_PLACEMENT_3D ( 'NONE', #228, #47, #154 ) ;
#220 = DATE_AND_TIME ( #139, #183 ) ;
#221 = EDGE_CURVE ( 'NONE', #245, #230, #135, .T. ) ;
#222 = SHAPE_DEFINITION_REPRESENTATION ( #24, #186 ) ;
#223 = VERTEX_POINT ( 'NONE', #109 ) ;
#224 = APPROVAL_STATUS ( 'not_yet_approved' ) ;
#225 = ORIENTED_EDGE ( 'NONE', *, *, #221, .F. ) ;
#226 = APPROVAL_DATE_TIME ( #144, #160 ) ;
#227 = PRODUCT_RELATED_PRODUCT_CATEGORY ( 'detail', '', ( #124 ) ) ;
#228 = CARTESIAN_POINT ( 'NONE',  ( 0.000000000000000000, 0.000000000000000000, 7.000000000000000000 ) ) ;
#229 = VECTOR ( 'NONE', #113, 1000.000000000000000 ) ;
#230 = VERTEX_POINT ( 'NONE', #81 ) ;
#231 = ORIENTED_EDGE ( 'NONE', *, *, #252, .T. ) ;
#232 = PLANE ( 'NONE',  #200 ) ;
#233 = CIRCLE ( 'NONE', #114, 9.000000000000000000 ) ;
#234 = DIRECTION ( 'NONE',  ( -1.000000000000000000, 0.000000000000000000, 0.000000000000000000 ) ) ;
#235 = DIRECTION ( 'NONE',  ( 0.000000000000000000, 0.000000000000000000, 1.000000000000000000 ) ) ;
#236 = DIRECTION ( 'NONE',  ( -0.000000000000000000, -0.000000000000000000, -1.000000000000000000 ) ) ;
#237 = PERSON_AND_ORGANIZATION_ROLE ( 'design_owner' ) ;
#238 = EDGE_LOOP ( 'NONE', ( #140, #6, #97, #246 ) ) ;
#239 = CALENDAR_DATE ( 2023, 13, 2 ) ;
#240 = ORIENTED_EDGE ( 'NONE', *, *, #100, .F. ) ;
#241 = PRODUCT_DEFINITION ( 'NEZNÁMÝ', '', #129, #72 ) ;
#242 = CYLINDRICAL_SURFACE ( 'NONE', #164, 6.000000000000000888 ) ;
#243 = ORIENTED_EDGE ( 'NONE', *, *, #100, .T. ) ;
#244 = ORIENTED_EDGE ( 'NONE', *, *, #213, .F. ) ;
#245 = VERTEX_POINT ( 'NONE', #197 ) ;
#246 = ORIENTED_EDGE ( 'NONE', *, *, #80, .F. ) ;
#247 = EDGE_CURVE ( 'NONE', #245, #173, #148, .T. ) ;
#248 = MECHANICAL_CONTEXT ( 'NONE', #56, 'mechanical' ) ;
#249 = AXIS2_PLACEMENT_3D ( 'NONE', #111, #236, #156 ) ;
#250 =( NAMED_UNIT ( * ) SI_UNIT ( $, .STERADIAN. ) SOLID_ANGLE_UNIT ( ) );
#251 = DIRECTION ( 'NONE',  ( 0.000000000000000000, 0.000000000000000000, 1.000000000000000000 ) ) ;
#252 = EDGE_CURVE ( 'NONE', #173, #119, #54, .T. ) ;
#253 = PERSON_AND_ORGANIZATION ( #2, #153 ) ;
#254 = PERSON_AND_ORGANIZATION ( #2, #153 ) ;
#255 = ORIENTED_EDGE ( 'NONE', *, *, #75, .T. ) ;
ENDSEC;
END-ISO-10303-21;
