ISO-10303-21;
HEADER;
FILE_DESCRIPTION (( 'STEP AP203' ),
    '1' );
FILE_NAME ('28f1.STEP',
    '2023-02-13T10:15:34',
    ( '' ),
    ( '' ),
    'SwSTEP 2.0',
    'SolidWorks 2019',
    '' );
FILE_SCHEMA (( 'CONFIG_CONTROL_DESIGN' ));
ENDSEC;

DATA;
#1 = EDGE_CURVE ( 'NONE', #45, #240, #26, .T. ) ;
#2 = ORIENTED_EDGE ( 'NONE', *, *, #235, .F. ) ;
#3 = PRODUCT_DEFINITION_FORMATION_WITH_SPECIFIED_SOURCE ( 'LIBOVOLNÝ', '', #150, .NOT_KNOWN. ) ;
#4 = ORIENTED_EDGE ( 'NONE', *, *, #235, .T. ) ;
#5 = ORIENTED_EDGE ( 'NONE', *, *, #200, .F. ) ;
#6 = CARTESIAN_POINT ( 'NONE',  ( 0.000000000000000000, 0.000000000000000000, 5.000000000000000000 ) ) ;
#7 = PLANE ( 'NONE',  #59 ) ;
#8 = LOCAL_TIME ( 11, 15, 34.00000000000000000, #98 ) ;
#9 = FACE_OUTER_BOUND ( 'NONE', #35, .T. ) ;
#10 = DIRECTION ( 'NONE',  ( 1.000000000000000000, 0.000000000000000000, 0.000000000000000000 ) ) ;
#11 = CARTESIAN_POINT ( 'NONE',  ( 0.000000000000000000, 0.000000000000000000, 5.000000000000000000 ) ) ;
#12 = PRODUCT_DEFINITION_SHAPE ( 'NONE', 'NONE',  #58 ) ;
#13 = CARTESIAN_POINT ( 'NONE',  ( 0.000000000000000000, 0.000000000000000000, 0.000000000000000000 ) ) ;
#14 = EDGE_CURVE ( 'NONE', #104, #63, #99, .T. ) ;
#15 = APPROVAL_STATUS ( 'not_yet_approved' ) ;
#16 = APPROVAL_DATE_TIME ( #209, #67 ) ;
#17 = PERSON_AND_ORGANIZATION ( #133, #96 ) ;
#18 = EDGE_LOOP ( 'NONE', ( #252, #2 ) ) ;
#19 = PERSON_AND_ORGANIZATION_ROLE ( 'classification_officer' ) ;
#20 = LINE ( 'NONE', #101, #50 ) ;
#21 = APPLICATION_CONTEXT ( 'configuration controlled 3d designs of mechanical parts and assemblies' ) ;
#22 = VERTEX_POINT ( 'NONE', #142 ) ;
#23 = LOCAL_TIME ( 11, 15, 34.00000000000000000, #117 ) ;
#24 = ORIENTED_EDGE ( 'NONE', *, *, #253, .F. ) ;
#25 = ADVANCED_FACE ( 'NONE', ( #60, #239 ), #97, .T. ) ;
#26 = LINE ( 'NONE', #81, #207 ) ;
#27 = CYLINDRICAL_SURFACE ( 'NONE', #125, 5.000000000000000000 ) ;
#28 = MANIFOLD_SOLID_BREP ( 'Pøidat vysunutím3', #247 ) ;
#29 = DIRECTION ( 'NONE',  ( -1.000000000000000000, 0.000000000000000000, 0.000000000000000000 ) ) ;
#30 = CARTESIAN_POINT ( 'NONE',  ( 0.000000000000000000, 0.000000000000000000, 0.000000000000000000 ) ) ;
#31 = DIRECTION ( 'NONE',  ( 0.000000000000000000, 0.000000000000000000, 1.000000000000000000 ) ) ;
#32 = EDGE_CURVE ( 'NONE', #41, #45, #162, .T. ) ;
#33 = CC_DESIGN_SECURITY_CLASSIFICATION ( #238, ( #3 ) ) ;
#34 = DATE_TIME_ROLE ( 'classification_date' ) ;
#35 = EDGE_LOOP ( 'NONE', ( #158, #196, #222, #213 ) ) ;
#36 = AXIS2_PLACEMENT_3D ( 'NONE', #55, #138, #120 ) ;
#37 = ADVANCED_FACE ( 'NONE', ( #216 ), #195, .T. ) ;
#38 = CARTESIAN_POINT ( 'NONE',  ( 0.000000000000000000, 0.000000000000000000, 5.000000000000000000 ) ) ;
#39 = APPROVAL_ROLE ( '' ) ;
#40 = ADVANCED_BREP_SHAPE_REPRESENTATION ( '28f1', ( #28, #44 ), #208 ) ;
#41 = VERTEX_POINT ( 'NONE', #102 ) ;
#42 = ORIENTED_EDGE ( 'NONE', *, *, #193, .T. ) ;
#43 = PRODUCT_RELATED_PRODUCT_CATEGORY ( 'detail', '', ( #150 ) ) ;
#44 = AXIS2_PLACEMENT_3D ( 'NONE', #215, #251, #132 ) ;
#45 = VERTEX_POINT ( 'NONE', #83 ) ;
#46 = CARTESIAN_POINT ( 'NONE',  ( 0.000000000000000000, 0.000000000000000000, 250.0000000000000000 ) ) ;
#47 = VECTOR ( 'NONE', #107, 1000.000000000000000 ) ;
#48 = CARTESIAN_POINT ( 'NONE',  ( 0.000000000000000000, 0.000000000000000000, 5.000000000000000000 ) ) ;
#49 = PERSON_AND_ORGANIZATION_ROLE ( 'creator' ) ;
#50 = VECTOR ( 'NONE', #155, 1000.000000000000000 ) ;
#51 = COORDINATED_UNIVERSAL_TIME_OFFSET ( 1, 0, .AHEAD. ) ;
#52 = ORIENTED_EDGE ( 'NONE', *, *, #193, .F. ) ;
#53 = EDGE_CURVE ( 'NONE', #41, #159, #20, .T. ) ;
#54 = CALENDAR_DATE ( 2023, 13, 2 ) ;
#55 = CARTESIAN_POINT ( 'NONE',  ( 0.000000000000000000, 0.000000000000000000, 250.0000000000000000 ) ) ;
#56 = CC_DESIGN_APPROVAL ( #62, ( #238 ) ) ;
#57 = APPLICATION_PROTOCOL_DEFINITION ( 'international standard', 'config_control_design', 1994, #21 ) ;
#58 = PRODUCT_DEFINITION ( 'NEZNÁMÝ', '', #3, #141 ) ;
#59 = AXIS2_PLACEMENT_3D ( 'NONE', #30, #245, #223 ) ;
#60 = FACE_BOUND ( 'NONE', #178, .T. ) ;
#61 = CARTESIAN_POINT ( 'NONE',  ( -8.000000000000000000, 0.000000000000000000, 5.000000000000000000 ) ) ;
#62 = APPROVAL ( #139, 'NEURÈENÝ' ) ;
#63 = VERTEX_POINT ( 'NONE', #61 ) ;
#64 = AXIS2_PLACEMENT_3D ( 'NONE', #46, #106, #71 ) ;
#65 = DIRECTION ( 'NONE',  ( 1.000000000000000000, 0.000000000000000000, 0.000000000000000000 ) ) ;
#66 = FACE_OUTER_BOUND ( 'NONE', #18, .T. ) ;
#67 = APPROVAL ( #112, 'NEURÈENÝ' ) ;
#68 = CARTESIAN_POINT ( 'NONE',  ( 8.000000000000000000, 9.797174393178825657E-16, 5.000000000000000000 ) ) ;
#69 = APPLICATION_CONTEXT ( 'configuration controlled 3d designs of mechanical parts and assemblies' ) ;
#70 = FACE_OUTER_BOUND ( 'NONE', #180, .T. ) ;
#71 = DIRECTION ( 'NONE',  ( 1.000000000000000000, 0.000000000000000000, 0.000000000000000000 ) ) ;
#72 = CALENDAR_DATE ( 2023, 13, 2 ) ;
#73 = AXIS2_PLACEMENT_3D ( 'NONE', #174, #77, #234 ) ;
#74 = SECURITY_CLASSIFICATION_LEVEL ( 'unclassified' ) ;
#75 = EDGE_CURVE ( 'NONE', #63, #104, #118, .T. ) ;
#76 = PERSON_AND_ORGANIZATION ( #133, #96 ) ;
#77 = DIRECTION ( 'NONE',  ( 0.000000000000000000, 0.000000000000000000, 1.000000000000000000 ) ) ;
#78 = APPROVAL_ROLE ( '' ) ;
#79 = CC_DESIGN_APPROVAL ( #93, ( #3 ) ) ;
#80 = ADVANCED_FACE ( 'NONE', ( #9 ), #148, .T. ) ;
#81 = CARTESIAN_POINT ( 'NONE',  ( 5.000000000000000000, 6.123233995736766282E-16, 250.0000000000000000 ) ) ;
#82 = VECTOR ( 'NONE', #147, 1000.000000000000000 ) ;
#83 = CARTESIAN_POINT ( 'NONE',  ( 5.000000000000000000, 6.123233995736766282E-16, 250.0000000000000000 ) ) ;
#84 = ORIENTED_EDGE ( 'NONE', *, *, #1, .T. ) ;
#85 = DIRECTION ( 'NONE',  ( 1.000000000000000000, 0.000000000000000000, 0.000000000000000000 ) ) ;
#86 = CARTESIAN_POINT ( 'NONE',  ( 0.000000000000000000, 0.000000000000000000, 5.000000000000000000 ) ) ;
#87 = CARTESIAN_POINT ( 'NONE',  ( -5.000000000000000000, 0.000000000000000000, 5.000000000000000000 ) ) ;
#88 = DIRECTION ( 'NONE',  ( 0.000000000000000000, 0.000000000000000000, 1.000000000000000000 ) ) ;
#89 = ADVANCED_FACE ( 'NONE', ( #228 ), #27, .T. ) ;
#90 = DIRECTION ( 'NONE',  ( 1.000000000000000000, 0.000000000000000000, 0.000000000000000000 ) ) ;
#91 = APPLICATION_PROTOCOL_DEFINITION ( 'international standard', 'config_control_design', 1994, #69 ) ;
#92 = COORDINATED_UNIVERSAL_TIME_OFFSET ( 1, 0, .AHEAD. ) ;
#93 = APPROVAL ( #15, 'NEURÈENÝ' ) ;
#94 = PERSON_AND_ORGANIZATION ( #133, #96 ) ;
#95 = CIRCLE ( 'NONE', #156, 5.000000000000000000 ) ;
#96 = ORGANIZATION ( 'NEURÈENÝ', 'NEURÈENÝ', '' ) ;
#97 = PLANE ( 'NONE',  #73 ) ;
#98 = COORDINATED_UNIVERSAL_TIME_OFFSET ( 1, 0, .AHEAD. ) ;
#99 = CIRCLE ( 'NONE', #242, 8.000000000000000000 ) ;
#100 = CC_DESIGN_APPROVAL ( #67, ( #58 ) ) ;
#101 = CARTESIAN_POINT ( 'NONE',  ( -5.000000000000000000, 0.000000000000000000, 250.0000000000000000 ) ) ;
#102 = CARTESIAN_POINT ( 'NONE',  ( -5.000000000000000000, 0.000000000000000000, 250.0000000000000000 ) ) ;
#103 = APPROVAL_PERSON_ORGANIZATION ( #17, #67, #78 ) ;
#104 = VERTEX_POINT ( 'NONE', #127 ) ;
#105 = ORIENTED_EDGE ( 'NONE', *, *, #200, .T. ) ;
#106 = DIRECTION ( 'NONE',  ( 0.000000000000000000, 0.000000000000000000, 1.000000000000000000 ) ) ;
#107 = DIRECTION ( 'NONE',  ( -0.000000000000000000, -0.000000000000000000, -1.000000000000000000 ) ) ;
#108 = CARTESIAN_POINT ( 'NONE',  ( 0.000000000000000000, 0.000000000000000000, 250.0000000000000000 ) ) ;
#109 = CARTESIAN_POINT ( 'NONE',  ( 5.000000000000000000, 6.123233995736766282E-16, 5.000000000000000000 ) ) ;
#110 = PLANE ( 'NONE',  #163 ) ;
#111 = PERSON_AND_ORGANIZATION_ROLE ( 'design_supplier' ) ;
#112 = APPROVAL_STATUS ( 'not_yet_approved' ) ;
#113 = APPROVAL_ROLE ( '' ) ;
#114 = AXIS2_PLACEMENT_3D ( 'NONE', #13, #243, #10 ) ;
#115 = VERTEX_POINT ( 'NONE', #205 ) ;
#116 = DIRECTION ( 'NONE',  ( -0.000000000000000000, -0.000000000000000000, -1.000000000000000000 ) ) ;
#117 = COORDINATED_UNIVERSAL_TIME_OFFSET ( 1, 0, .AHEAD. ) ;
#118 = CIRCLE ( 'NONE', #202, 8.000000000000000000 ) ;
#119 = AXIS2_PLACEMENT_3D ( 'NONE', #206, #31, #90 ) ;
#120 = DIRECTION ( 'NONE',  ( 1.000000000000000000, 0.000000000000000000, 0.000000000000000000 ) ) ;
#121 = ORIENTED_EDGE ( 'NONE', *, *, #14, .F. ) ;
#122 = EDGE_LOOP ( 'NONE', ( #5, #179, #135, #177 ) ) ;
#123 = EDGE_CURVE ( 'NONE', #159, #240, #95, .T. ) ;
#124 = DIRECTION ( 'NONE',  ( -0.000000000000000000, -0.000000000000000000, -1.000000000000000000 ) ) ;
#125 = AXIS2_PLACEMENT_3D ( 'NONE', #183, #129, #29 ) ;
#126 = APPROVAL_PERSON_ORGANIZATION ( #229, #62, #39 ) ;
#127 = CARTESIAN_POINT ( 'NONE',  ( 8.000000000000000000, 9.797174393178825657E-16, 5.000000000000000000 ) ) ;
#128 = LINE ( 'NONE', #248, #47 ) ;
#129 = DIRECTION ( 'NONE',  ( -0.000000000000000000, -0.000000000000000000, -1.000000000000000000 ) ) ;
#130 = DATE_AND_TIME ( #236, #23 ) ;
#131 = EDGE_CURVE ( 'NONE', #63, #115, #128, .T. ) ;
#132 = DIRECTION ( 'NONE',  ( 1.000000000000000000, 0.000000000000000000, 0.000000000000000000 ) ) ;
#133 = PERSON ( 'NEURÈENÝ', 'NEURÈENÝ', 'NEURÈENÝ', ('NEURÈENÝ'), ('NEURÈENÝ'), ('NEURÈENÝ') ) ;
#134 = DATE_AND_TIME ( #171, #226 ) ;
#135 = ORIENTED_EDGE ( 'NONE', *, *, #131, .T. ) ;
#136 = APPROVAL_DATE_TIME ( #130, #62 ) ;
#137 = APPROVAL_PERSON_ORGANIZATION ( #149, #93, #113 ) ;
#138 = DIRECTION ( 'NONE',  ( 0.000000000000000000, 0.000000000000000000, 1.000000000000000000 ) ) ;
#139 = APPROVAL_STATUS ( 'not_yet_approved' ) ;
#140 = AXIS2_PLACEMENT_3D ( 'NONE', #11, #241, #160 ) ;
#141 = DESIGN_CONTEXT ( 'detailed design', #21, 'design' ) ;
#142 = CARTESIAN_POINT ( 'NONE',  ( 8.000000000000000000, 9.797174393178825657E-16, 0.000000000000000000 ) ) ;
#143 = EDGE_LOOP ( 'NONE', ( #220, #42 ) ) ;
#144 = EDGE_LOOP ( 'NONE', ( #197, #161 ) ) ;
#145 = LOCAL_TIME ( 11, 15, 34.00000000000000000, #51 ) ;
#146 = CYLINDRICAL_SURFACE ( 'NONE', #140, 8.000000000000000000 ) ;
#147 = DIRECTION ( 'NONE',  ( -0.000000000000000000, -0.000000000000000000, -1.000000000000000000 ) ) ;
#148 = CYLINDRICAL_SURFACE ( 'NONE', #218, 5.000000000000000000 ) ;
#149 = PERSON_AND_ORGANIZATION ( #133, #96 ) ;
#150 = PRODUCT ( '28f1', '28f1', '', ( #192 ) ) ;
#151 = DIRECTION ( 'NONE',  ( 0.000000000000000000, 0.000000000000000000, 1.000000000000000000 ) ) ;
#152 = CC_DESIGN_PERSON_AND_ORGANIZATION_ASSIGNMENT ( #254, #111, ( #3 ) ) ;
#153 = CALENDAR_DATE ( 2023, 13, 2 ) ;
#154 = CC_DESIGN_PERSON_AND_ORGANIZATION_ASSIGNMENT ( #212, #217, ( #150 ) ) ;
#155 = DIRECTION ( 'NONE',  ( -0.000000000000000000, -0.000000000000000000, -1.000000000000000000 ) ) ;
#156 = AXIS2_PLACEMENT_3D ( 'NONE', #86, #184, #244 ) ;
#157 = AXIS2_PLACEMENT_3D ( 'NONE', #225, #88, #65 ) ;
#158 = ORIENTED_EDGE ( 'NONE', *, *, #1, .F. ) ;
#159 = VERTEX_POINT ( 'NONE', #87 ) ;
#160 = DIRECTION ( 'NONE',  ( -1.000000000000000000, 0.000000000000000000, 0.000000000000000000 ) ) ;
#161 = ORIENTED_EDGE ( 'NONE', *, *, #14, .T. ) ;
#162 = CIRCLE ( 'NONE', #36, 5.000000000000000000 ) ;
#163 = AXIS2_PLACEMENT_3D ( 'NONE', #164, #186, #204 ) ;
#164 = CARTESIAN_POINT ( 'NONE',  ( 0.000000000000000000, 0.000000000000000000, 250.0000000000000000 ) ) ;
#165 = LINE ( 'NONE', #68, #82 ) ;
#166 = CC_DESIGN_DATE_AND_TIME_ASSIGNMENT ( #189, #250, ( #58 ) ) ;
#167 = DIRECTION ( 'NONE',  ( -1.000000000000000000, 0.000000000000000000, 0.000000000000000000 ) ) ;
#168 =( LENGTH_UNIT ( ) NAMED_UNIT ( * ) SI_UNIT ( .MILLI., .METRE. ) );
#169 = EDGE_CURVE ( 'NONE', #115, #22, #187, .T. ) ;
#170 = SHAPE_DEFINITION_REPRESENTATION ( #12, #40 ) ;
#171 = CALENDAR_DATE ( 2023, 13, 2 ) ;
#172 = CIRCLE ( 'NONE', #157, 5.000000000000000000 ) ;
#173 = APPROVAL_DATE_TIME ( #134, #93 ) ;
#174 = CARTESIAN_POINT ( 'NONE',  ( 0.000000000000000000, 0.000000000000000000, 5.000000000000000000 ) ) ;
#175 = PERSON_AND_ORGANIZATION_ROLE ( 'creator' ) ;
#176 = UNCERTAINTY_MEASURE_WITH_UNIT (LENGTH_MEASURE( 1.000000000000000082E-05 ), #168, 'distance_accuracy_value', 'NONE');
#177 = ORIENTED_EDGE ( 'NONE', *, *, #169, .T. ) ;
#178 = EDGE_LOOP ( 'NONE', ( #188, #24 ) ) ;
#179 = ORIENTED_EDGE ( 'NONE', *, *, #75, .F. ) ;
#180 = EDGE_LOOP ( 'NONE', ( #121, #105, #4, #237 ) ) ;
#181 = DIRECTION ( 'NONE',  ( 1.000000000000000000, 0.000000000000000000, 0.000000000000000000 ) ) ;
#182 = CC_DESIGN_PERSON_AND_ORGANIZATION_ASSIGNMENT ( #94, #175, ( #58 ) ) ;
#183 = CARTESIAN_POINT ( 'NONE',  ( 0.000000000000000000, 0.000000000000000000, 250.0000000000000000 ) ) ;
#184 = DIRECTION ( 'NONE',  ( 0.000000000000000000, 0.000000000000000000, 1.000000000000000000 ) ) ;
#185 = FACE_OUTER_BOUND ( 'NONE', #143, .T. ) ;
#186 = DIRECTION ( 'NONE',  ( 0.000000000000000000, 0.000000000000000000, 1.000000000000000000 ) ) ;
#187 = CIRCLE ( 'NONE', #114, 8.000000000000000000 ) ;
#188 = ORIENTED_EDGE ( 'NONE', *, *, #123, .F. ) ;
#189 = DATE_AND_TIME ( #72, #145 ) ;
#190 = CC_DESIGN_PERSON_AND_ORGANIZATION_ASSIGNMENT ( #233, #19, ( #238 ) ) ;
#191 = DIRECTION ( 'NONE',  ( -1.000000000000000000, 0.000000000000000000, 0.000000000000000000 ) ) ;
#192 = MECHANICAL_CONTEXT ( 'NONE', #69, 'mechanical' ) ;
#193 = EDGE_CURVE ( 'NONE', #45, #41, #255, .T. ) ;
#194 = AXIS2_PLACEMENT_3D ( 'NONE', #38, #116, #191 ) ;
#195 = CYLINDRICAL_SURFACE ( 'NONE', #194, 8.000000000000000000 ) ;
#196 = ORIENTED_EDGE ( 'NONE', *, *, #32, .F. ) ;
#197 = ORIENTED_EDGE ( 'NONE', *, *, #75, .T. ) ;
#198 = ORIENTED_EDGE ( 'NONE', *, *, #53, .F. ) ;
#199 = DIRECTION ( 'NONE',  ( 0.000000000000000000, 0.000000000000000000, 1.000000000000000000 ) ) ;
#200 = EDGE_CURVE ( 'NONE', #104, #22, #165, .T. ) ;
#201 =( NAMED_UNIT ( * ) SI_UNIT ( $, .STERADIAN. ) SOLID_ANGLE_UNIT ( ) );
#202 = AXIS2_PLACEMENT_3D ( 'NONE', #48, #199, #181 ) ;
#203 = CIRCLE ( 'NONE', #119, 8.000000000000000000 ) ;
#204 = DIRECTION ( 'NONE',  ( 1.000000000000000000, 0.000000000000000000, -0.000000000000000000 ) ) ;
#205 = CARTESIAN_POINT ( 'NONE',  ( -8.000000000000000000, 0.000000000000000000, 0.000000000000000000 ) ) ;
#206 = CARTESIAN_POINT ( 'NONE',  ( 0.000000000000000000, 0.000000000000000000, 0.000000000000000000 ) ) ;
#207 = VECTOR ( 'NONE', #232, 1000.000000000000000 ) ;
#208 =( GEOMETRIC_REPRESENTATION_CONTEXT ( 3 ) GLOBAL_UNCERTAINTY_ASSIGNED_CONTEXT ( ( #176 ) ) GLOBAL_UNIT_ASSIGNED_CONTEXT ( ( #168, #224, #201 ) ) REPRESENTATION_CONTEXT ( 'NONE', 'WORKASPACE' ) );
#209 = DATE_AND_TIME ( #54, #246 ) ;
#210 = COORDINATED_UNIVERSAL_TIME_OFFSET ( 1, 0, .AHEAD. ) ;
#211 = CC_DESIGN_PERSON_AND_ORGANIZATION_ASSIGNMENT ( #76, #49, ( #3 ) ) ;
#212 = PERSON_AND_ORGANIZATION ( #133, #96 ) ;
#213 = ORIENTED_EDGE ( 'NONE', *, *, #123, .T. ) ;
#214 = CC_DESIGN_DATE_AND_TIME_ASSIGNMENT ( #231, #34, ( #238 ) ) ;
#215 = CARTESIAN_POINT ( 'NONE',  ( 0.000000000000000000, 0.000000000000000000, 0.000000000000000000 ) ) ;
#216 = FACE_OUTER_BOUND ( 'NONE', #122, .T. ) ;
#217 = PERSON_AND_ORGANIZATION_ROLE ( 'design_owner' ) ;
#218 = AXIS2_PLACEMENT_3D ( 'NONE', #108, #124, #167 ) ;
#219 = ORIENTED_EDGE ( 'NONE', *, *, #253, .T. ) ;
#220 = ORIENTED_EDGE ( 'NONE', *, *, #32, .T. ) ;
#221 = EDGE_LOOP ( 'NONE', ( #52, #84, #219, #198 ) ) ;
#222 = ORIENTED_EDGE ( 'NONE', *, *, #53, .T. ) ;
#223 = DIRECTION ( 'NONE',  ( 1.000000000000000000, 0.000000000000000000, -0.000000000000000000 ) ) ;
#224 =( NAMED_UNIT ( * ) PLANE_ANGLE_UNIT ( ) SI_UNIT ( $, .RADIAN. ) );
#225 = CARTESIAN_POINT ( 'NONE',  ( 0.000000000000000000, 0.000000000000000000, 5.000000000000000000 ) ) ;
#226 = LOCAL_TIME ( 11, 15, 34.00000000000000000, #92 ) ;
#227 = ADVANCED_FACE ( 'NONE', ( #66 ), #7, .F. ) ;
#228 = FACE_OUTER_BOUND ( 'NONE', #221, .T. ) ;
#229 = PERSON_AND_ORGANIZATION ( #133, #96 ) ;
#230 = ADVANCED_FACE ( 'NONE', ( #185 ), #110, .T. ) ;
#231 = DATE_AND_TIME ( #153, #8 ) ;
#232 = DIRECTION ( 'NONE',  ( -0.000000000000000000, -0.000000000000000000, -1.000000000000000000 ) ) ;
#233 = PERSON_AND_ORGANIZATION ( #133, #96 ) ;
#234 = DIRECTION ( 'NONE',  ( 1.000000000000000000, 0.000000000000000000, -0.000000000000000000 ) ) ;
#235 = EDGE_CURVE ( 'NONE', #22, #115, #203, .T. ) ;
#236 = CALENDAR_DATE ( 2023, 13, 2 ) ;
#237 = ORIENTED_EDGE ( 'NONE', *, *, #131, .F. ) ;
#238 = SECURITY_CLASSIFICATION ( '', '', #74 ) ;
#239 = FACE_OUTER_BOUND ( 'NONE', #144, .T. ) ;
#240 = VERTEX_POINT ( 'NONE', #109 ) ;
#241 = DIRECTION ( 'NONE',  ( -0.000000000000000000, -0.000000000000000000, -1.000000000000000000 ) ) ;
#242 = AXIS2_PLACEMENT_3D ( 'NONE', #6, #151, #85 ) ;
#243 = DIRECTION ( 'NONE',  ( 0.000000000000000000, 0.000000000000000000, 1.000000000000000000 ) ) ;
#244 = DIRECTION ( 'NONE',  ( 1.000000000000000000, 0.000000000000000000, 0.000000000000000000 ) ) ;
#245 = DIRECTION ( 'NONE',  ( 0.000000000000000000, 0.000000000000000000, 1.000000000000000000 ) ) ;
#246 = LOCAL_TIME ( 11, 15, 34.00000000000000000, #210 ) ;
#247 = CLOSED_SHELL ( 'NONE', ( #89, #249, #37, #25, #227, #80, #230 ) ) ;
#248 = CARTESIAN_POINT ( 'NONE',  ( -8.000000000000000000, 0.000000000000000000, 5.000000000000000000 ) ) ;
#249 = ADVANCED_FACE ( 'NONE', ( #70 ), #146, .T. ) ;
#250 = DATE_TIME_ROLE ( 'creation_date' ) ;
#251 = DIRECTION ( 'NONE',  ( 0.000000000000000000, 0.000000000000000000, 1.000000000000000000 ) ) ;
#252 = ORIENTED_EDGE ( 'NONE', *, *, #169, .F. ) ;
#253 = EDGE_CURVE ( 'NONE', #240, #159, #172, .T. ) ;
#254 = PERSON_AND_ORGANIZATION ( #133, #96 ) ;
#255 = CIRCLE ( 'NONE', #64, 5.000000000000000000 ) ;
ENDSEC;
END-ISO-10303-21;
