ISO-10303-21;
HEADER;
FILE_DESCRIPTION (( 'STEP AP203' ),
    '1' );
FILE_NAME ('7b30.STEP',
    '2023-02-13T09:15:18',
    ( '' ),
    ( '' ),
    'SwSTEP 2.0',
    'SolidWorks 2019',
    '' );
FILE_SCHEMA (( 'CONFIG_CONTROL_DESIGN' ));
ENDSEC;

DATA;
#1 =( NAMED_UNIT ( * ) SI_UNIT ( $, .STERADIAN. ) SOLID_ANGLE_UNIT ( ) );
#2 = ADVANCED_BREP_SHAPE_REPRESENTATION ( '7b30', ( #113, #72 ), #199 ) ;
#3 = CARTESIAN_POINT ( 'NONE',  ( 0.000000000000000000, 0.000000000000000000, 200.0000000000000000 ) ) ;
#4 = CALENDAR_DATE ( 2023, 13, 2 ) ;
#5 = PERSON_AND_ORGANIZATION ( #149, #247 ) ;
#6 = LOCAL_TIME ( 10, 15, 18.00000000000000000, #178 ) ;
#7 = EDGE_CURVE ( 'NONE', #123, #18, #166, .T. ) ;
#8 = CARTESIAN_POINT ( 'NONE',  ( 0.000000000000000000, 0.000000000000000000, 0.000000000000000000 ) ) ;
#9 = ORIENTED_EDGE ( 'NONE', *, *, #124, .F. ) ;
#10 = CC_DESIGN_DATE_AND_TIME_ASSIGNMENT ( #245, #179, ( #244 ) ) ;
#11 = CALENDAR_DATE ( 2023, 13, 2 ) ;
#12 = DATE_AND_TIME ( #201, #6 ) ;
#13 = ORIENTED_EDGE ( 'NONE', *, *, #134, .T. ) ;
#14 = DIRECTION ( 'NONE',  ( 1.000000000000000000, 0.000000000000000000, -0.000000000000000000 ) ) ;
#15 = CIRCLE ( 'NONE', #188, 8.000000000000000000 ) ;
#16 = ORIENTED_EDGE ( 'NONE', *, *, #99, .T. ) ;
#17 = CARTESIAN_POINT ( 'NONE',  ( 11.00000000000000000, 1.347111479062088405E-15, 7.000000000000000000 ) ) ;
#18 = VERTEX_POINT ( 'NONE', #17 ) ;
#19 = FACE_OUTER_BOUND ( 'NONE', #32, .T. ) ;
#20 = VECTOR ( 'NONE', #73, 1000.000000000000000 ) ;
#21 = DIRECTION ( 'NONE',  ( 0.000000000000000000, 0.000000000000000000, 1.000000000000000000 ) ) ;
#22 = CARTESIAN_POINT ( 'NONE',  ( -11.00000000000000000, 0.000000000000000000, 7.000000000000000000 ) ) ;
#23 = DIRECTION ( 'NONE',  ( -0.000000000000000000, -0.000000000000000000, -1.000000000000000000 ) ) ;
#24 = MECHANICAL_CONTEXT ( 'NONE', #130, 'mechanical' ) ;
#25 = DATE_AND_TIME ( #112, #95 ) ;
#26 = EDGE_CURVE ( 'NONE', #46, #87, #56, .T. ) ;
#27 = DIRECTION ( 'NONE',  ( 0.000000000000000000, 0.000000000000000000, 1.000000000000000000 ) ) ;
#28 = VECTOR ( 'NONE', #41, 1000.000000000000000 ) ;
#29 = PRODUCT ( '7b30', '7b30', '', ( #24 ) ) ;
#30 = APPROVAL_STATUS ( 'not_yet_approved' ) ;
#31 = PRODUCT_DEFINITION ( 'NEZNÁMÝ', '', #48, #215 ) ;
#32 = EDGE_LOOP ( 'NONE', ( #67, #249, #80, #13 ) ) ;
#33 = DIRECTION ( 'NONE',  ( 0.000000000000000000, 0.000000000000000000, 1.000000000000000000 ) ) ;
#34 = PLANE ( 'NONE',  #104 ) ;
#35 = AXIS2_PLACEMENT_3D ( 'NONE', #132, #197, #214 ) ;
#36 = DIRECTION ( 'NONE',  ( 0.000000000000000000, 0.000000000000000000, 1.000000000000000000 ) ) ;
#37 = ORIENTED_EDGE ( 'NONE', *, *, #196, .T. ) ;
#38 = UNCERTAINTY_MEASURE_WITH_UNIT (LENGTH_MEASURE( 1.000000000000000082E-05 ), #193, 'distance_accuracy_value', 'NONE');
#39 = CYLINDRICAL_SURFACE ( 'NONE', #207, 8.000000000000000000 ) ;
#40 = AXIS2_PLACEMENT_3D ( 'NONE', #177, #21, #239 ) ;
#41 = DIRECTION ( 'NONE',  ( -0.000000000000000000, -0.000000000000000000, -1.000000000000000000 ) ) ;
#42 = DIRECTION ( 'NONE',  ( 0.000000000000000000, 0.000000000000000000, 1.000000000000000000 ) ) ;
#43 = LOCAL_TIME ( 10, 15, 18.00000000000000000, #44 ) ;
#44 = COORDINATED_UNIVERSAL_TIME_OFFSET ( 1, 0, .AHEAD. ) ;
#45 = VERTEX_POINT ( 'NONE', #208 ) ;
#46 = VERTEX_POINT ( 'NONE', #68 ) ;
#47 = ORIENTED_EDGE ( 'NONE', *, *, #204, .F. ) ;
#48 = PRODUCT_DEFINITION_FORMATION_WITH_SPECIFIED_SOURCE ( 'LIBOVOLNÝ', '', #29, .NOT_KNOWN. ) ;
#49 = CARTESIAN_POINT ( 'NONE',  ( -8.000000000000000000, 0.000000000000000000, 7.000000000000000000 ) ) ;
#50 = VERTEX_POINT ( 'NONE', #128 ) ;
#51 = CC_DESIGN_PERSON_AND_ORGANIZATION_ASSIGNMENT ( #81, #116, ( #48 ) ) ;
#52 = EDGE_LOOP ( 'NONE', ( #9, #37, #143, #205 ) ) ;
#53 = FACE_OUTER_BOUND ( 'NONE', #190, .T. ) ;
#54 = CARTESIAN_POINT ( 'NONE',  ( 11.00000000000000000, 1.347111479062088405E-15, 7.000000000000000000 ) ) ;
#55 = CARTESIAN_POINT ( 'NONE',  ( -8.000000000000000000, 0.000000000000000000, 200.0000000000000000 ) ) ;
#56 = CIRCLE ( 'NONE', #216, 8.000000000000000000 ) ;
#57 = PLANE ( 'NONE',  #90 ) ;
#58 = FACE_OUTER_BOUND ( 'NONE', #211, .T. ) ;
#59 = PERSON_AND_ORGANIZATION_ROLE ( 'design_owner' ) ;
#60 = ORIENTED_EDGE ( 'NONE', *, *, #162, .F. ) ;
#61 = APPROVAL_STATUS ( 'not_yet_approved' ) ;
#62 = PERSON_AND_ORGANIZATION ( #149, #247 ) ;
#63 = ORIENTED_EDGE ( 'NONE', *, *, #99, .F. ) ;
#64 = DIRECTION ( 'NONE',  ( 1.000000000000000000, 0.000000000000000000, 0.000000000000000000 ) ) ;
#65 = EDGE_LOOP ( 'NONE', ( #63, #125 ) ) ;
#66 = CARTESIAN_POINT ( 'NONE',  ( 0.000000000000000000, 0.000000000000000000, 200.0000000000000000 ) ) ;
#67 = ORIENTED_EDGE ( 'NONE', *, *, #106, .F. ) ;
#68 = CARTESIAN_POINT ( 'NONE',  ( 8.000000000000000000, 9.797174393178825657E-16, 7.000000000000000000 ) ) ;
#69 = FACE_OUTER_BOUND ( 'NONE', #118, .T. ) ;
#70 = CC_DESIGN_PERSON_AND_ORGANIZATION_ASSIGNMENT ( #248, #59, ( #29 ) ) ;
#71 = AXIS2_PLACEMENT_3D ( 'NONE', #185, #250, #86 ) ;
#72 = AXIS2_PLACEMENT_3D ( 'NONE', #8, #27, #64 ) ;
#73 = DIRECTION ( 'NONE',  ( -0.000000000000000000, -0.000000000000000000, -1.000000000000000000 ) ) ;
#74 = ADVANCED_FACE ( 'NONE', ( #69 ), #34, .T. ) ;
#75 = DIRECTION ( 'NONE',  ( -0.000000000000000000, -0.000000000000000000, -1.000000000000000000 ) ) ;
#76 =( NAMED_UNIT ( * ) PLANE_ANGLE_UNIT ( ) SI_UNIT ( $, .RADIAN. ) );
#77 = DIRECTION ( 'NONE',  ( 1.000000000000000000, 0.000000000000000000, 0.000000000000000000 ) ) ;
#78 = SECURITY_CLASSIFICATION_LEVEL ( 'unclassified' ) ;
#79 = APPROVAL_ROLE ( '' ) ;
#80 = ORIENTED_EDGE ( 'NONE', *, *, #204, .T. ) ;
#81 = PERSON_AND_ORGANIZATION ( #149, #247 ) ;
#82 = ADVANCED_FACE ( 'NONE', ( #187 ), #145, .T. ) ;
#83 = CC_DESIGN_DATE_AND_TIME_ASSIGNMENT ( #140, #182, ( #31 ) ) ;
#84 = EDGE_LOOP ( 'NONE', ( #60, #232, #165, #47 ) ) ;
#85 = CARTESIAN_POINT ( 'NONE',  ( -11.00000000000000000, 0.000000000000000000, 7.000000000000000000 ) ) ;
#86 = DIRECTION ( 'NONE',  ( 1.000000000000000000, 0.000000000000000000, 0.000000000000000000 ) ) ;
#87 = VERTEX_POINT ( 'NONE', #49 ) ;
#88 = FACE_OUTER_BOUND ( 'NONE', #84, .T. ) ;
#89 = CIRCLE ( 'NONE', #71, 11.00000000000000000 ) ;
#90 = AXIS2_PLACEMENT_3D ( 'NONE', #175, #133, #131 ) ;
#91 = DIRECTION ( 'NONE',  ( -0.000000000000000000, -0.000000000000000000, -1.000000000000000000 ) ) ;
#92 = DIRECTION ( 'NONE',  ( 0.000000000000000000, 0.000000000000000000, 1.000000000000000000 ) ) ;
#93 = CYLINDRICAL_SURFACE ( 'NONE', #180, 8.000000000000000000 ) ;
#94 = CARTESIAN_POINT ( 'NONE',  ( 0.000000000000000000, 0.000000000000000000, 200.0000000000000000 ) ) ;
#95 = LOCAL_TIME ( 10, 15, 18.00000000000000000, #138 ) ;
#96 = PERSON_AND_ORGANIZATION_ROLE ( 'creator' ) ;
#97 = APPROVAL_DATE_TIME ( #25, #108 ) ;
#98 = APPROVAL_DATE_TIME ( #12, #236 ) ;
#99 = EDGE_CURVE ( 'NONE', #45, #50, #89, .T. ) ;
#100 = CC_DESIGN_APPROVAL ( #126, ( #31 ) ) ;
#101 = DIRECTION ( 'NONE',  ( 1.000000000000000000, 0.000000000000000000, -0.000000000000000000 ) ) ;
#102 = ORIENTED_EDGE ( 'NONE', *, *, #7, .T. ) ;
#103 = DIRECTION ( 'NONE',  ( 0.000000000000000000, 0.000000000000000000, 1.000000000000000000 ) ) ;
#104 = AXIS2_PLACEMENT_3D ( 'NONE', #66, #231, #101 ) ;
#105 = CC_DESIGN_SECURITY_CLASSIFICATION ( #244, ( #48 ) ) ;
#106 = EDGE_CURVE ( 'NONE', #227, #46, #252, .T. ) ;
#107 = DIRECTION ( 'NONE',  ( 1.000000000000000000, 0.000000000000000000, 0.000000000000000000 ) ) ;
#108 = APPROVAL ( #61, 'NEURÈENÝ' ) ;
#109 = ORIENTED_EDGE ( 'NONE', *, *, #124, .T. ) ;
#110 = DIRECTION ( 'NONE',  ( -1.000000000000000000, 0.000000000000000000, 0.000000000000000000 ) ) ;
#111 = CARTESIAN_POINT ( 'NONE',  ( 0.000000000000000000, 0.000000000000000000, 200.0000000000000000 ) ) ;
#112 = CALENDAR_DATE ( 2023, 13, 2 ) ;
#113 = MANIFOLD_SOLID_BREP ( 'Pøidat vysunutím3', #172 ) ;
#114 = COORDINATED_UNIVERSAL_TIME_OFFSET ( 1, 0, .AHEAD. ) ;
#115 = ADVANCED_FACE ( 'NONE', ( #150, #53 ), #233, .T. ) ;
#116 = PERSON_AND_ORGANIZATION_ROLE ( 'creator' ) ;
#117 = PERSON_AND_ORGANIZATION_ROLE ( 'design_supplier' ) ;
#118 = EDGE_LOOP ( 'NONE', ( #163, #142 ) ) ;
#119 = PRODUCT_DEFINITION_SHAPE ( 'NONE', 'NONE',  #31 ) ;
#120 = CARTESIAN_POINT ( 'NONE',  ( 0.000000000000000000, 0.000000000000000000, 7.000000000000000000 ) ) ;
#121 = CIRCLE ( 'NONE', #230, 11.00000000000000000 ) ;
#122 = CARTESIAN_POINT ( 'NONE',  ( 8.000000000000000000, 9.797174393178825657E-16, 200.0000000000000000 ) ) ;
#123 = VERTEX_POINT ( 'NONE', #85 ) ;
#124 = EDGE_CURVE ( 'NONE', #18, #123, #121, .T. ) ;
#125 = ORIENTED_EDGE ( 'NONE', *, *, #174, .F. ) ;
#126 = APPROVAL ( #30, 'NEURÈENÝ' ) ;
#127 = LOCAL_TIME ( 10, 15, 18.00000000000000000, #114 ) ;
#128 = CARTESIAN_POINT ( 'NONE',  ( 11.00000000000000000, 1.347111479062088405E-15, 0.000000000000000000 ) ) ;
#129 = LINE ( 'NONE', #55, #141 ) ;
#130 = APPLICATION_CONTEXT ( 'configuration controlled 3d designs of mechanical parts and assemblies' ) ;
#131 = DIRECTION ( 'NONE',  ( 1.000000000000000000, 0.000000000000000000, -0.000000000000000000 ) ) ;
#132 = CARTESIAN_POINT ( 'NONE',  ( 0.000000000000000000, 0.000000000000000000, 0.000000000000000000 ) ) ;
#133 = DIRECTION ( 'NONE',  ( 0.000000000000000000, 0.000000000000000000, 1.000000000000000000 ) ) ;
#134 = EDGE_CURVE ( 'NONE', #87, #46, #146, .T. ) ;
#135 = CARTESIAN_POINT ( 'NONE',  ( 0.000000000000000000, 0.000000000000000000, 7.000000000000000000 ) ) ;
#136 = PERSON_AND_ORGANIZATION ( #149, #247 ) ;
#137 = CC_DESIGN_APPROVAL ( #236, ( #48 ) ) ;
#138 = COORDINATED_UNIVERSAL_TIME_OFFSET ( 1, 0, .AHEAD. ) ;
#139 = APPROVAL_ROLE ( '' ) ;
#140 = DATE_AND_TIME ( #4, #127 ) ;
#141 = VECTOR ( 'NONE', #75, 1000.000000000000000 ) ;
#142 = ORIENTED_EDGE ( 'NONE', *, *, #162, .T. ) ;
#143 = ORIENTED_EDGE ( 'NONE', *, *, #174, .T. ) ;
#144 = APPLICATION_CONTEXT ( 'configuration controlled 3d designs of mechanical parts and assemblies' ) ;
#145 = CYLINDRICAL_SURFACE ( 'NONE', #183, 11.00000000000000000 ) ;
#146 = CIRCLE ( 'NONE', #40, 8.000000000000000000 ) ;
#147 = ADVANCED_FACE ( 'NONE', ( #58 ), #198, .T. ) ;
#148 = ORIENTED_EDGE ( 'NONE', *, *, #134, .F. ) ;
#149 = PERSON ( 'NEURÈENÝ', 'NEURÈENÝ', 'NEURÈENÝ', ('NEURÈENÝ'), ('NEURÈENÝ'), ('NEURÈENÝ') ) ;
#150 = FACE_BOUND ( 'NONE', #210, .T. ) ;
#151 = ORIENTED_EDGE ( 'NONE', *, *, #191, .T. ) ;
#152 = AXIS2_PLACEMENT_3D ( 'NONE', #229, #103, #107 ) ;
#153 = LINE ( 'NONE', #54, #28 ) ;
#154 = CARTESIAN_POINT ( 'NONE',  ( -8.000000000000000000, 0.000000000000000000, 200.0000000000000000 ) ) ;
#155 = AXIS2_PLACEMENT_3D ( 'NONE', #200, #23, #110 ) ;
#156 = APPLICATION_PROTOCOL_DEFINITION ( 'international standard', 'config_control_design', 1994, #130 ) ;
#157 = PERSON_AND_ORGANIZATION ( #149, #247 ) ;
#158 = CC_DESIGN_PERSON_AND_ORGANIZATION_ASSIGNMENT ( #136, #96, ( #31 ) ) ;
#159 = CALENDAR_DATE ( 2023, 13, 2 ) ;
#160 = SHAPE_DEFINITION_REPRESENTATION ( #119, #2 ) ;
#161 = CC_DESIGN_APPROVAL ( #108, ( #244 ) ) ;
#162 = EDGE_CURVE ( 'NONE', #227, #168, #15, .T. ) ;
#163 = ORIENTED_EDGE ( 'NONE', *, *, #212, .T. ) ;
#164 = DIRECTION ( 'NONE',  ( -1.000000000000000000, 0.000000000000000000, 0.000000000000000000 ) ) ;
#165 = ORIENTED_EDGE ( 'NONE', *, *, #26, .T. ) ;
#166 = CIRCLE ( 'NONE', #152, 11.00000000000000000 ) ;
#167 = CIRCLE ( 'NONE', #194, 8.000000000000000000 ) ;
#168 = VERTEX_POINT ( 'NONE', #154 ) ;
#169 = DIRECTION ( 'NONE',  ( 1.000000000000000000, 0.000000000000000000, 0.000000000000000000 ) ) ;
#170 = CARTESIAN_POINT ( 'NONE',  ( 8.000000000000000000, 9.797174393178825657E-16, 200.0000000000000000 ) ) ;
#171 = ADVANCED_FACE ( 'NONE', ( #19 ), #93, .T. ) ;
#172 = CLOSED_SHELL ( 'NONE', ( #221, #82, #147, #115, #238, #171, #74 ) ) ;
#173 = DIRECTION ( 'NONE',  ( -0.000000000000000000, -0.000000000000000000, -1.000000000000000000 ) ) ;
#174 = EDGE_CURVE ( 'NONE', #50, #45, #220, .T. ) ;
#175 = CARTESIAN_POINT ( 'NONE',  ( 0.000000000000000000, 0.000000000000000000, 0.000000000000000000 ) ) ;
#176 = LOCAL_TIME ( 10, 15, 18.00000000000000000, #243 ) ;
#177 = CARTESIAN_POINT ( 'NONE',  ( 0.000000000000000000, 0.000000000000000000, 7.000000000000000000 ) ) ;
#178 = COORDINATED_UNIVERSAL_TIME_OFFSET ( 1, 0, .AHEAD. ) ;
#179 = DATE_TIME_ROLE ( 'classification_date' ) ;
#180 = AXIS2_PLACEMENT_3D ( 'NONE', #111, #91, #242 ) ;
#181 = PERSON_AND_ORGANIZATION ( #149, #247 ) ;
#182 = DATE_TIME_ROLE ( 'creation_date' ) ;
#183 = AXIS2_PLACEMENT_3D ( 'NONE', #184, #234, #164 ) ;
#184 = CARTESIAN_POINT ( 'NONE',  ( 0.000000000000000000, 0.000000000000000000, 7.000000000000000000 ) ) ;
#185 = CARTESIAN_POINT ( 'NONE',  ( 0.000000000000000000, 0.000000000000000000, 0.000000000000000000 ) ) ;
#186 = PRODUCT_RELATED_PRODUCT_CATEGORY ( 'detail', '', ( #29 ) ) ;
#187 = FACE_OUTER_BOUND ( 'NONE', #52, .T. ) ;
#188 = AXIS2_PLACEMENT_3D ( 'NONE', #3, #42, #77 ) ;
#189 = APPROVAL_PERSON_ORGANIZATION ( #5, #236, #226 ) ;
#190 = EDGE_LOOP ( 'NONE', ( #102, #109 ) ) ;
#191 = EDGE_CURVE ( 'NONE', #123, #45, #237, .T. ) ;
#192 = ORIENTED_EDGE ( 'NONE', *, *, #196, .F. ) ;
#193 =( LENGTH_UNIT ( ) NAMED_UNIT ( * ) SI_UNIT ( .MILLI., .METRE. ) );
#194 = AXIS2_PLACEMENT_3D ( 'NONE', #94, #92, #255 ) ;
#195 = DIRECTION ( 'NONE',  ( 0.000000000000000000, 0.000000000000000000, 1.000000000000000000 ) ) ;
#196 = EDGE_CURVE ( 'NONE', #18, #50, #153, .T. ) ;
#197 = DIRECTION ( 'NONE',  ( 0.000000000000000000, 0.000000000000000000, 1.000000000000000000 ) ) ;
#198 = CYLINDRICAL_SURFACE ( 'NONE', #155, 11.00000000000000000 ) ;
#199 =( GEOMETRIC_REPRESENTATION_CONTEXT ( 3 ) GLOBAL_UNCERTAINTY_ASSIGNED_CONTEXT ( ( #38 ) ) GLOBAL_UNIT_ASSIGNED_CONTEXT ( ( #193, #76, #1 ) ) REPRESENTATION_CONTEXT ( 'NONE', 'WORKASPACE' ) );
#200 = CARTESIAN_POINT ( 'NONE',  ( 0.000000000000000000, 0.000000000000000000, 7.000000000000000000 ) ) ;
#201 = CALENDAR_DATE ( 2023, 13, 2 ) ;
#202 = APPROVAL_STATUS ( 'not_yet_approved' ) ;
#203 = VECTOR ( 'NONE', #209, 1000.000000000000000 ) ;
#204 = EDGE_CURVE ( 'NONE', #168, #87, #129, .T. ) ;
#205 = ORIENTED_EDGE ( 'NONE', *, *, #191, .F. ) ;
#206 = CC_DESIGN_PERSON_AND_ORGANIZATION_ASSIGNMENT ( #157, #117, ( #48 ) ) ;
#207 = AXIS2_PLACEMENT_3D ( 'NONE', #254, #173, #218 ) ;
#208 = CARTESIAN_POINT ( 'NONE',  ( -11.00000000000000000, 0.000000000000000000, 0.000000000000000000 ) ) ;
#209 = DIRECTION ( 'NONE',  ( -0.000000000000000000, -0.000000000000000000, -1.000000000000000000 ) ) ;
#210 = EDGE_LOOP ( 'NONE', ( #148, #251 ) ) ;
#211 = EDGE_LOOP ( 'NONE', ( #192, #253, #151, #16 ) ) ;
#212 = EDGE_CURVE ( 'NONE', #168, #227, #167, .T. ) ;
#213 = CARTESIAN_POINT ( 'NONE',  ( 0.000000000000000000, 0.000000000000000000, 7.000000000000000000 ) ) ;
#214 = DIRECTION ( 'NONE',  ( 1.000000000000000000, 0.000000000000000000, 0.000000000000000000 ) ) ;
#215 = DESIGN_CONTEXT ( 'detailed design', #144, 'design' ) ;
#216 = AXIS2_PLACEMENT_3D ( 'NONE', #120, #36, #169 ) ;
#217 = DIRECTION ( 'NONE',  ( 1.000000000000000000, 0.000000000000000000, 0.000000000000000000 ) ) ;
#218 = DIRECTION ( 'NONE',  ( -1.000000000000000000, 0.000000000000000000, 0.000000000000000000 ) ) ;
#219 = AXIS2_PLACEMENT_3D ( 'NONE', #213, #33, #14 ) ;
#220 = CIRCLE ( 'NONE', #35, 11.00000000000000000 ) ;
#221 = ADVANCED_FACE ( 'NONE', ( #88 ), #39, .T. ) ;
#222 = PERSON_AND_ORGANIZATION ( #149, #247 ) ;
#223 = APPLICATION_PROTOCOL_DEFINITION ( 'international standard', 'config_control_design', 1994, #144 ) ;
#224 = DATE_AND_TIME ( #159, #176 ) ;
#225 = APPROVAL_PERSON_ORGANIZATION ( #181, #108, #139 ) ;
#226 = APPROVAL_ROLE ( '' ) ;
#227 = VERTEX_POINT ( 'NONE', #170 ) ;
#228 = APPROVAL_DATE_TIME ( #224, #126 ) ;
#229 = CARTESIAN_POINT ( 'NONE',  ( 0.000000000000000000, 0.000000000000000000, 7.000000000000000000 ) ) ;
#230 = AXIS2_PLACEMENT_3D ( 'NONE', #135, #195, #217 ) ;
#231 = DIRECTION ( 'NONE',  ( 0.000000000000000000, 0.000000000000000000, 1.000000000000000000 ) ) ;
#232 = ORIENTED_EDGE ( 'NONE', *, *, #106, .T. ) ;
#233 = PLANE ( 'NONE',  #219 ) ;
#234 = DIRECTION ( 'NONE',  ( -0.000000000000000000, -0.000000000000000000, -1.000000000000000000 ) ) ;
#235 = APPROVAL_PERSON_ORGANIZATION ( #62, #126, #79 ) ;
#236 = APPROVAL ( #202, 'NEURÈENÝ' ) ;
#237 = LINE ( 'NONE', #22, #20 ) ;
#238 = ADVANCED_FACE ( 'NONE', ( #241 ), #57, .F. ) ;
#239 = DIRECTION ( 'NONE',  ( 1.000000000000000000, 0.000000000000000000, 0.000000000000000000 ) ) ;
#240 = CC_DESIGN_PERSON_AND_ORGANIZATION_ASSIGNMENT ( #222, #246, ( #244 ) ) ;
#241 = FACE_OUTER_BOUND ( 'NONE', #65, .T. ) ;
#242 = DIRECTION ( 'NONE',  ( -1.000000000000000000, 0.000000000000000000, 0.000000000000000000 ) ) ;
#243 = COORDINATED_UNIVERSAL_TIME_OFFSET ( 1, 0, .AHEAD. ) ;
#244 = SECURITY_CLASSIFICATION ( '', '', #78 ) ;
#245 = DATE_AND_TIME ( #11, #43 ) ;
#246 = PERSON_AND_ORGANIZATION_ROLE ( 'classification_officer' ) ;
#247 = ORGANIZATION ( 'NEURÈENÝ', 'NEURÈENÝ', '' ) ;
#248 = PERSON_AND_ORGANIZATION ( #149, #247 ) ;
#249 = ORIENTED_EDGE ( 'NONE', *, *, #212, .F. ) ;
#250 = DIRECTION ( 'NONE',  ( 0.000000000000000000, 0.000000000000000000, 1.000000000000000000 ) ) ;
#251 = ORIENTED_EDGE ( 'NONE', *, *, #26, .F. ) ;
#252 = LINE ( 'NONE', #122, #203 ) ;
#253 = ORIENTED_EDGE ( 'NONE', *, *, #7, .F. ) ;
#254 = CARTESIAN_POINT ( 'NONE',  ( 0.000000000000000000, 0.000000000000000000, 200.0000000000000000 ) ) ;
#255 = DIRECTION ( 'NONE',  ( 1.000000000000000000, 0.000000000000000000, 0.000000000000000000 ) ) ;
ENDSEC;
END-ISO-10303-21;
