ISO-10303-21;
HEADER;
FILE_DESCRIPTION (( 'STEP AP203' ),
    '1' );
FILE_NAME ('0850.STEP',
    '2023-02-13T07:50:06',
    ( '' ),
    ( '' ),
    'SwSTEP 2.0',
    'SolidWorks 2019',
    '' );
FILE_SCHEMA (( 'CONFIG_CONTROL_DESIGN' ));
ENDSEC;

DATA;
#1 = CYLINDRICAL_SURFACE ( 'NONE', #68, 9.000000000000000000 ) ;
#2 = ADVANCED_FACE ( 'NONE', ( #91 ), #250, .T. ) ;
#3 = PERSON_AND_ORGANIZATION_ROLE ( 'design_supplier' ) ;
#4 = PLANE ( 'NONE',  #23 ) ;
#5 = DIRECTION ( 'NONE',  ( 0.000000000000000000, 0.000000000000000000, 1.000000000000000000 ) ) ;
#6 = ADVANCED_FACE ( 'NONE', ( #193 ), #149, .T. ) ;
#7 = PRODUCT ( '0850', '0850', '', ( #13 ) ) ;
#8 = ORIENTED_EDGE ( 'NONE', *, *, #173, .F. ) ;
#9 = ORIENTED_EDGE ( 'NONE', *, *, #236, .T. ) ;
#10 = EDGE_LOOP ( 'NONE', ( #94, #32, #97, #247 ) ) ;
#11 = CARTESIAN_POINT ( 'NONE',  ( 0.000000000000000000, 0.000000000000000000, 400.0000000000000000 ) ) ;
#12 = ORIENTED_EDGE ( 'NONE', *, *, #229, .F. ) ;
#13 = MECHANICAL_CONTEXT ( 'NONE', #163, 'mechanical' ) ;
#14 = CIRCLE ( 'NONE', #129, 12.00000000000000178 ) ;
#15 = APPLICATION_PROTOCOL_DEFINITION ( 'international standard', 'config_control_design', 1994, #227 ) ;
#16 = CARTESIAN_POINT ( 'NONE',  ( 9.000000000000000000, 1.102182119232617714E-15, 7.000000000000000000 ) ) ;
#17 = APPLICATION_PROTOCOL_DEFINITION ( 'international standard', 'config_control_design', 1994, #163 ) ;
#18 = CARTESIAN_POINT ( 'NONE',  ( 0.000000000000000000, 0.000000000000000000, 0.000000000000000000 ) ) ;
#19 = AXIS2_PLACEMENT_3D ( 'NONE', #195, #150, #40 ) ;
#20 = DATE_AND_TIME ( #172, #166 ) ;
#21 = APPROVAL ( #217, 'NEURÈENÝ' ) ;
#22 = AXIS2_PLACEMENT_3D ( 'NONE', #252, #116, #75 ) ;
#23 = AXIS2_PLACEMENT_3D ( 'NONE', #86, #25, #136 ) ;
#24 = PERSON_AND_ORGANIZATION ( #138, #142 ) ;
#25 = DIRECTION ( 'NONE',  ( 0.000000000000000000, 0.000000000000000000, 1.000000000000000000 ) ) ;
#26 = CARTESIAN_POINT ( 'NONE',  ( -12.00000000000000178, 0.000000000000000000, 7.000000000000000000 ) ) ;
#27 = ORIENTED_EDGE ( 'NONE', *, *, #229, .T. ) ;
#28 = EDGE_LOOP ( 'NONE', ( #160, #9 ) ) ;
#29 = AXIS2_PLACEMENT_3D ( 'NONE', #248, #128, #79 ) ;
#30 = VERTEX_POINT ( 'NONE', #131 ) ;
#31 = DIRECTION ( 'NONE',  ( -0.000000000000000000, -0.000000000000000000, -1.000000000000000000 ) ) ;
#32 = ORIENTED_EDGE ( 'NONE', *, *, #148, .F. ) ;
#33 = DIRECTION ( 'NONE',  ( 0.000000000000000000, 0.000000000000000000, 1.000000000000000000 ) ) ;
#34 = CARTESIAN_POINT ( 'NONE',  ( 0.000000000000000000, 0.000000000000000000, 400.0000000000000000 ) ) ;
#35 = DATE_AND_TIME ( #232, #78 ) ;
#36 = CARTESIAN_POINT ( 'NONE',  ( 0.000000000000000000, 0.000000000000000000, 7.000000000000000000 ) ) ;
#37 = CIRCLE ( 'NONE', #52, 12.00000000000000178 ) ;
#38 = ADVANCED_FACE ( 'NONE', ( #118 ), #1, .T. ) ;
#39 = COORDINATED_UNIVERSAL_TIME_OFFSET ( 1, 0, .AHEAD. ) ;
#40 = DIRECTION ( 'NONE',  ( -1.000000000000000000, 0.000000000000000000, 0.000000000000000000 ) ) ;
#41 = PERSON_AND_ORGANIZATION_ROLE ( 'creator' ) ;
#42 = DIRECTION ( 'NONE',  ( 0.000000000000000000, 0.000000000000000000, 1.000000000000000000 ) ) ;
#43 = APPROVAL_ROLE ( '' ) ;
#44 = CARTESIAN_POINT ( 'NONE',  ( 9.000000000000000000, 1.102182119232617714E-15, 400.0000000000000000 ) ) ;
#45 = CC_DESIGN_PERSON_AND_ORGANIZATION_ASSIGNMENT ( #235, #41, ( #161 ) ) ;
#46 = APPROVAL_PERSON_ORGANIZATION ( #196, #21, #43 ) ;
#47 = SECURITY_CLASSIFICATION ( '', '', #117 ) ;
#48 = PRODUCT_DEFINITION_SHAPE ( 'NONE', 'NONE',  #161 ) ;
#49 = VERTEX_POINT ( 'NONE', #62 ) ;
#50 = CC_DESIGN_DATE_AND_TIME_ASSIGNMENT ( #119, #240, ( #47 ) ) ;
#51 =( LENGTH_UNIT ( ) NAMED_UNIT ( * ) SI_UNIT ( .MILLI., .METRE. ) );
#52 = AXIS2_PLACEMENT_3D ( 'NONE', #98, #171, #168 ) ;
#53 = ORIENTED_EDGE ( 'NONE', *, *, #239, .F. ) ;
#54 = APPROVAL ( #241, 'NEURÈENÝ' ) ;
#55 = ORIENTED_EDGE ( 'NONE', *, *, #184, .T. ) ;
#56 = DIRECTION ( 'NONE',  ( 0.000000000000000000, 0.000000000000000000, 1.000000000000000000 ) ) ;
#57 = AXIS2_PLACEMENT_3D ( 'NONE', #66, #221, #244 ) ;
#58 = VECTOR ( 'NONE', #185, 1000.000000000000000 ) ;
#59 = LINE ( 'NONE', #214, #77 ) ;
#60 = LINE ( 'NONE', #186, #180 ) ;
#61 = ADVANCED_FACE ( 'NONE', ( #211 ), #83, .F. ) ;
#62 = CARTESIAN_POINT ( 'NONE',  ( 12.00000000000000178, 1.469576158976824144E-15, 7.000000000000000000 ) ) ;
#63 = APPROVAL_PERSON_ORGANIZATION ( #24, #54, #219 ) ;
#64 = APPROVAL_DATE_TIME ( #154, #21 ) ;
#65 = PERSON_AND_ORGANIZATION ( #138, #142 ) ;
#66 = CARTESIAN_POINT ( 'NONE',  ( 0.000000000000000000, 0.000000000000000000, 7.000000000000000000 ) ) ;
#67 = EDGE_CURVE ( 'NONE', #109, #251, #226, .T. ) ;
#68 = AXIS2_PLACEMENT_3D ( 'NONE', #237, #254, #216 ) ;
#69 = CIRCLE ( 'NONE', #22, 9.000000000000000000 ) ;
#70 = DIRECTION ( 'NONE',  ( 1.000000000000000000, 0.000000000000000000, 0.000000000000000000 ) ) ;
#71 = CC_DESIGN_PERSON_AND_ORGANIZATION_ASSIGNMENT ( #135, #102, ( #47 ) ) ;
#72 = AXIS2_PLACEMENT_3D ( 'NONE', #36, #114, #191 ) ;
#73 = EDGE_LOOP ( 'NONE', ( #203, #206 ) ) ;
#74 = ORIENTED_EDGE ( 'NONE', *, *, #236, .F. ) ;
#75 = DIRECTION ( 'NONE',  ( 1.000000000000000000, 0.000000000000000000, 0.000000000000000000 ) ) ;
#76 = CARTESIAN_POINT ( 'NONE',  ( -12.00000000000000178, 0.000000000000000000, 0.000000000000000000 ) ) ;
#77 = VECTOR ( 'NONE', #115, 1000.000000000000000 ) ;
#78 = LOCAL_TIME ( 8, 50, 6.000000000000000000, #144 ) ;
#79 = DIRECTION ( 'NONE',  ( 1.000000000000000000, 0.000000000000000000, -0.000000000000000000 ) ) ;
#80 = PERSON_AND_ORGANIZATION ( #138, #142 ) ;
#81 = FACE_OUTER_BOUND ( 'NONE', #233, .T. ) ;
#82 = CARTESIAN_POINT ( 'NONE',  ( -12.00000000000000178, 0.000000000000000000, 7.000000000000000000 ) ) ;
#83 = PLANE ( 'NONE',  #201 ) ;
#84 = CARTESIAN_POINT ( 'NONE',  ( 0.000000000000000000, 0.000000000000000000, 7.000000000000000000 ) ) ;
#85 = DATE_AND_TIME ( #194, #107 ) ;
#86 = CARTESIAN_POINT ( 'NONE',  ( 0.000000000000000000, 0.000000000000000000, 7.000000000000000000 ) ) ;
#87 = AXIS2_PLACEMENT_3D ( 'NONE', #34, #56, #112 ) ;
#88 = EDGE_LOOP ( 'NONE', ( #181, #126, #108, #162 ) ) ;
#89 = UNCERTAINTY_MEASURE_WITH_UNIT (LENGTH_MEASURE( 1.000000000000000082E-05 ), #51, 'distance_accuracy_value', 'NONE');
#90 = VECTOR ( 'NONE', #106, 1000.000000000000000 ) ;
#91 = FACE_OUTER_BOUND ( 'NONE', #28, .T. ) ;
#92 = DIRECTION ( 'NONE',  ( 1.000000000000000000, 0.000000000000000000, 0.000000000000000000 ) ) ;
#93 = APPROVAL ( #234, 'NEURÈENÝ' ) ;
#94 = ORIENTED_EDGE ( 'NONE', *, *, #122, .F. ) ;
#95 = CARTESIAN_POINT ( 'NONE',  ( 0.000000000000000000, 0.000000000000000000, 0.000000000000000000 ) ) ;
#96 = AXIS2_PLACEMENT_3D ( 'NONE', #84, #182, #133 ) ;
#97 = ORIENTED_EDGE ( 'NONE', *, *, #177, .T. ) ;
#98 = CARTESIAN_POINT ( 'NONE',  ( 0.000000000000000000, 0.000000000000000000, 0.000000000000000000 ) ) ;
#99 =( NAMED_UNIT ( * ) SI_UNIT ( $, .STERADIAN. ) SOLID_ANGLE_UNIT ( ) );
#100 = APPROVAL_ROLE ( '' ) ;
#101 = DIRECTION ( 'NONE',  ( 0.000000000000000000, 0.000000000000000000, 1.000000000000000000 ) ) ;
#102 = PERSON_AND_ORGANIZATION_ROLE ( 'classification_officer' ) ;
#103 = ADVANCED_BREP_SHAPE_REPRESENTATION ( '0850', ( #120, #152 ), #174 ) ;
#104 = CIRCLE ( 'NONE', #205, 9.000000000000000000 ) ;
#105 = FACE_BOUND ( 'NONE', #73, .T. ) ;
#106 = DIRECTION ( 'NONE',  ( -0.000000000000000000, -0.000000000000000000, -1.000000000000000000 ) ) ;
#107 = LOCAL_TIME ( 8, 50, 6.000000000000000000, #121 ) ;
#108 = ORIENTED_EDGE ( 'NONE', *, *, #173, .T. ) ;
#109 = VERTEX_POINT ( 'NONE', #16 ) ;
#110 = EDGE_LOOP ( 'NONE', ( #231, #8 ) ) ;
#111 = EDGE_CURVE ( 'NONE', #187, #157, #37, .T. ) ;
#112 = DIRECTION ( 'NONE',  ( 1.000000000000000000, 0.000000000000000000, 0.000000000000000000 ) ) ;
#113 = CC_DESIGN_SECURITY_CLASSIFICATION ( #47, ( #218 ) ) ;
#114 = DIRECTION ( 'NONE',  ( 0.000000000000000000, 0.000000000000000000, 1.000000000000000000 ) ) ;
#115 = DIRECTION ( 'NONE',  ( -0.000000000000000000, -0.000000000000000000, -1.000000000000000000 ) ) ;
#116 = DIRECTION ( 'NONE',  ( 0.000000000000000000, 0.000000000000000000, 1.000000000000000000 ) ) ;
#117 = SECURITY_CLASSIFICATION_LEVEL ( 'unclassified' ) ;
#118 = FACE_OUTER_BOUND ( 'NONE', #209, .T. ) ;
#119 = DATE_AND_TIME ( #215, #189 ) ;
#120 = MANIFOLD_SOLID_BREP ( 'Pøidat vysunutím3', #147 ) ;
#121 = COORDINATED_UNIVERSAL_TIME_OFFSET ( 1, 0, .AHEAD. ) ;
#122 = EDGE_CURVE ( 'NONE', #49, #157, #59, .T. ) ;
#123 = CARTESIAN_POINT ( 'NONE',  ( 12.00000000000000178, 1.469576158976824144E-15, 0.000000000000000000 ) ) ;
#124 = CC_DESIGN_APPROVAL ( #93, ( #161 ) ) ;
#125 = CC_DESIGN_PERSON_AND_ORGANIZATION_ASSIGNMENT ( #65, #3, ( #218 ) ) ;
#126 = ORIENTED_EDGE ( 'NONE', *, *, #122, .T. ) ;
#127 = DESIGN_CONTEXT ( 'detailed design', #227, 'design' ) ;
#128 = DIRECTION ( 'NONE',  ( 0.000000000000000000, 0.000000000000000000, 1.000000000000000000 ) ) ;
#129 = AXIS2_PLACEMENT_3D ( 'NONE', #178, #5, #70 ) ;
#130 = AXIS2_PLACEMENT_3D ( 'NONE', #198, #42, #200 ) ;
#131 = CARTESIAN_POINT ( 'NONE',  ( 9.000000000000000000, 1.102182119232617714E-15, 400.0000000000000000 ) ) ;
#132 = EDGE_CURVE ( 'NONE', #49, #183, #212, .T. ) ;
#133 = DIRECTION ( 'NONE',  ( 1.000000000000000000, 0.000000000000000000, 0.000000000000000000 ) ) ;
#134 = SHAPE_DEFINITION_REPRESENTATION ( #48, #103 ) ;
#135 = PERSON_AND_ORGANIZATION ( #138, #142 ) ;
#136 = DIRECTION ( 'NONE',  ( 1.000000000000000000, 0.000000000000000000, -0.000000000000000000 ) ) ;
#137 = CC_DESIGN_PERSON_AND_ORGANIZATION_ASSIGNMENT ( #253, #146, ( #7 ) ) ;
#138 = PERSON ( 'NEURÈENÝ', 'NEURÈENÝ', 'NEURÈENÝ', ('NEURÈENÝ'), ('NEURÈENÝ'), ('NEURÈENÝ') ) ;
#139 = ORIENTED_EDGE ( 'NONE', *, *, #170, .T. ) ;
#140 = ORIENTED_EDGE ( 'NONE', *, *, #132, .T. ) ;
#141 = ADVANCED_FACE ( 'NONE', ( #242 ), #156, .T. ) ;
#142 = ORGANIZATION ( 'NEURÈENÝ', 'NEURÈENÝ', '' ) ;
#143 = DIRECTION ( 'NONE',  ( 0.000000000000000000, 0.000000000000000000, 1.000000000000000000 ) ) ;
#144 = COORDINATED_UNIVERSAL_TIME_OFFSET ( 1, 0, .AHEAD. ) ;
#145 = ORIENTED_EDGE ( 'NONE', *, *, #148, .T. ) ;
#146 = PERSON_AND_ORGANIZATION_ROLE ( 'design_owner' ) ;
#147 = CLOSED_SHELL ( 'NONE', ( #199, #6, #141, #159, #61, #38, #2 ) ) ;
#148 = EDGE_CURVE ( 'NONE', #183, #49, #179, .T. ) ;
#149 = CYLINDRICAL_SURFACE ( 'NONE', #19, 12.00000000000000178 ) ;
#150 = DIRECTION ( 'NONE',  ( -0.000000000000000000, -0.000000000000000000, -1.000000000000000000 ) ) ;
#151 = CALENDAR_DATE ( 2023, 13, 2 ) ;
#152 = AXIS2_PLACEMENT_3D ( 'NONE', #95, #33, #213 ) ;
#153 = DIRECTION ( 'NONE',  ( 1.000000000000000000, 0.000000000000000000, -0.000000000000000000 ) ) ;
#154 = DATE_AND_TIME ( #151, #188 ) ;
#155 = PERSON_AND_ORGANIZATION ( #138, #142 ) ;
#156 = CYLINDRICAL_SURFACE ( 'NONE', #57, 12.00000000000000178 ) ;
#157 = VERTEX_POINT ( 'NONE', #123 ) ;
#158 = AXIS2_PLACEMENT_3D ( 'NONE', #11, #31, #210 ) ;
#159 = ADVANCED_FACE ( 'NONE', ( #105, #176 ), #4, .T. ) ;
#160 = ORIENTED_EDGE ( 'NONE', *, *, #239, .T. ) ;
#161 = PRODUCT_DEFINITION ( 'NEZNÁMÝ', '', #218, #127 ) ;
#162 = ORIENTED_EDGE ( 'NONE', *, *, #177, .F. ) ;
#163 = APPLICATION_CONTEXT ( 'configuration controlled 3d designs of mechanical parts and assemblies' ) ;
#164 =( NAMED_UNIT ( * ) PLANE_ANGLE_UNIT ( ) SI_UNIT ( $, .RADIAN. ) );
#165 = ORIENTED_EDGE ( 'NONE', *, *, #67, .T. ) ;
#166 = LOCAL_TIME ( 8, 50, 6.000000000000000000, #39 ) ;
#167 = CC_DESIGN_PERSON_AND_ORGANIZATION_ASSIGNMENT ( #155, #243, ( #218 ) ) ;
#168 = DIRECTION ( 'NONE',  ( 1.000000000000000000, 0.000000000000000000, 0.000000000000000000 ) ) ;
#169 = CARTESIAN_POINT ( 'NONE',  ( 0.000000000000000000, 0.000000000000000000, 400.0000000000000000 ) ) ;
#170 = EDGE_CURVE ( 'NONE', #30, #109, #223, .T. ) ;
#171 = DIRECTION ( 'NONE',  ( 0.000000000000000000, 0.000000000000000000, 1.000000000000000000 ) ) ;
#172 = CALENDAR_DATE ( 2023, 13, 2 ) ;
#173 = EDGE_CURVE ( 'NONE', #157, #187, #14, .T. ) ;
#174 =( GEOMETRIC_REPRESENTATION_CONTEXT ( 3 ) GLOBAL_UNCERTAINTY_ASSIGNED_CONTEXT ( ( #89 ) ) GLOBAL_UNIT_ASSIGNED_CONTEXT ( ( #51, #164, #99 ) ) REPRESENTATION_CONTEXT ( 'NONE', 'WORKASPACE' ) );
#175 = DATE_TIME_ROLE ( 'creation_date' ) ;
#176 = FACE_OUTER_BOUND ( 'NONE', #246, .T. ) ;
#177 = EDGE_CURVE ( 'NONE', #183, #187, #224, .T. ) ;
#178 = CARTESIAN_POINT ( 'NONE',  ( 0.000000000000000000, 0.000000000000000000, 0.000000000000000000 ) ) ;
#179 = CIRCLE ( 'NONE', #130, 12.00000000000000178 ) ;
#180 = VECTOR ( 'NONE', #208, 1000.000000000000000 ) ;
#181 = ORIENTED_EDGE ( 'NONE', *, *, #132, .F. ) ;
#182 = DIRECTION ( 'NONE',  ( 0.000000000000000000, 0.000000000000000000, 1.000000000000000000 ) ) ;
#183 = VERTEX_POINT ( 'NONE', #82 ) ;
#184 = EDGE_CURVE ( 'NONE', #251, #109, #69, .T. ) ;
#185 = DIRECTION ( 'NONE',  ( -0.000000000000000000, -0.000000000000000000, -1.000000000000000000 ) ) ;
#186 = CARTESIAN_POINT ( 'NONE',  ( -9.000000000000000000, 0.000000000000000000, 400.0000000000000000 ) ) ;
#187 = VERTEX_POINT ( 'NONE', #76 ) ;
#188 = LOCAL_TIME ( 8, 50, 6.000000000000000000, #255 ) ;
#189 = LOCAL_TIME ( 8, 50, 6.000000000000000000, #238 ) ;
#190 = CYLINDRICAL_SURFACE ( 'NONE', #158, 9.000000000000000000 ) ;
#191 = DIRECTION ( 'NONE',  ( 1.000000000000000000, 0.000000000000000000, 0.000000000000000000 ) ) ;
#192 = APPROVAL_DATE_TIME ( #35, #93 ) ;
#193 = FACE_OUTER_BOUND ( 'NONE', #88, .T. ) ;
#194 = CALENDAR_DATE ( 2023, 13, 2 ) ;
#195 = CARTESIAN_POINT ( 'NONE',  ( 0.000000000000000000, 0.000000000000000000, 7.000000000000000000 ) ) ;
#196 = PERSON_AND_ORGANIZATION ( #138, #142 ) ;
#197 = APPROVAL_DATE_TIME ( #85, #54 ) ;
#198 = CARTESIAN_POINT ( 'NONE',  ( 0.000000000000000000, 0.000000000000000000, 7.000000000000000000 ) ) ;
#199 = ADVANCED_FACE ( 'NONE', ( #81 ), #190, .T. ) ;
#200 = DIRECTION ( 'NONE',  ( 1.000000000000000000, 0.000000000000000000, 0.000000000000000000 ) ) ;
#201 = AXIS2_PLACEMENT_3D ( 'NONE', #18, #101, #153 ) ;
#202 = CC_DESIGN_APPROVAL ( #54, ( #218 ) ) ;
#203 = ORIENTED_EDGE ( 'NONE', *, *, #184, .F. ) ;
#204 = VERTEX_POINT ( 'NONE', #230 ) ;
#205 = AXIS2_PLACEMENT_3D ( 'NONE', #169, #143, #92 ) ;
#206 = ORIENTED_EDGE ( 'NONE', *, *, #67, .F. ) ;
#207 = CC_DESIGN_DATE_AND_TIME_ASSIGNMENT ( #20, #175, ( #161 ) ) ;
#208 = DIRECTION ( 'NONE',  ( -0.000000000000000000, -0.000000000000000000, -1.000000000000000000 ) ) ;
#209 = EDGE_LOOP ( 'NONE', ( #228, #53, #27, #55 ) ) ;
#210 = DIRECTION ( 'NONE',  ( -1.000000000000000000, 0.000000000000000000, 0.000000000000000000 ) ) ;
#211 = FACE_OUTER_BOUND ( 'NONE', #110, .T. ) ;
#212 = CIRCLE ( 'NONE', #96, 12.00000000000000178 ) ;
#213 = DIRECTION ( 'NONE',  ( 1.000000000000000000, 0.000000000000000000, 0.000000000000000000 ) ) ;
#214 = CARTESIAN_POINT ( 'NONE',  ( 12.00000000000000178, 1.469576158976824144E-15, 7.000000000000000000 ) ) ;
#215 = CALENDAR_DATE ( 2023, 13, 2 ) ;
#216 = DIRECTION ( 'NONE',  ( -1.000000000000000000, 0.000000000000000000, 0.000000000000000000 ) ) ;
#217 = APPROVAL_STATUS ( 'not_yet_approved' ) ;
#218 = PRODUCT_DEFINITION_FORMATION_WITH_SPECIFIED_SOURCE ( 'LIBOVOLNÝ', '', #7, .NOT_KNOWN. ) ;
#219 = APPROVAL_ROLE ( '' ) ;
#220 = PRODUCT_RELATED_PRODUCT_CATEGORY ( 'detail', '', ( #7 ) ) ;
#221 = DIRECTION ( 'NONE',  ( -0.000000000000000000, -0.000000000000000000, -1.000000000000000000 ) ) ;
#222 = APPROVAL_PERSON_ORGANIZATION ( #80, #93, #100 ) ;
#223 = LINE ( 'NONE', #44, #90 ) ;
#224 = LINE ( 'NONE', #26, #58 ) ;
#225 = CC_DESIGN_APPROVAL ( #21, ( #47 ) ) ;
#226 = CIRCLE ( 'NONE', #72, 9.000000000000000000 ) ;
#227 = APPLICATION_CONTEXT ( 'configuration controlled 3d designs of mechanical parts and assemblies' ) ;
#228 = ORIENTED_EDGE ( 'NONE', *, *, #170, .F. ) ;
#229 = EDGE_CURVE ( 'NONE', #204, #251, #60, .T. ) ;
#230 = CARTESIAN_POINT ( 'NONE',  ( -9.000000000000000000, 0.000000000000000000, 400.0000000000000000 ) ) ;
#231 = ORIENTED_EDGE ( 'NONE', *, *, #111, .F. ) ;
#232 = CALENDAR_DATE ( 2023, 13, 2 ) ;
#233 = EDGE_LOOP ( 'NONE', ( #74, #139, #165, #12 ) ) ;
#234 = APPROVAL_STATUS ( 'not_yet_approved' ) ;
#235 = PERSON_AND_ORGANIZATION ( #138, #142 ) ;
#236 = EDGE_CURVE ( 'NONE', #30, #204, #104, .T. ) ;
#237 = CARTESIAN_POINT ( 'NONE',  ( 0.000000000000000000, 0.000000000000000000, 400.0000000000000000 ) ) ;
#238 = COORDINATED_UNIVERSAL_TIME_OFFSET ( 1, 0, .AHEAD. ) ;
#239 = EDGE_CURVE ( 'NONE', #204, #30, #245, .T. ) ;
#240 = DATE_TIME_ROLE ( 'classification_date' ) ;
#241 = APPROVAL_STATUS ( 'not_yet_approved' ) ;
#242 = FACE_OUTER_BOUND ( 'NONE', #10, .T. ) ;
#243 = PERSON_AND_ORGANIZATION_ROLE ( 'creator' ) ;
#244 = DIRECTION ( 'NONE',  ( -1.000000000000000000, 0.000000000000000000, 0.000000000000000000 ) ) ;
#245 = CIRCLE ( 'NONE', #87, 9.000000000000000000 ) ;
#246 = EDGE_LOOP ( 'NONE', ( #145, #140 ) ) ;
#247 = ORIENTED_EDGE ( 'NONE', *, *, #111, .T. ) ;
#248 = CARTESIAN_POINT ( 'NONE',  ( 0.000000000000000000, 0.000000000000000000, 400.0000000000000000 ) ) ;
#249 = CARTESIAN_POINT ( 'NONE',  ( -9.000000000000000000, 0.000000000000000000, 7.000000000000000000 ) ) ;
#250 = PLANE ( 'NONE',  #29 ) ;
#251 = VERTEX_POINT ( 'NONE', #249 ) ;
#252 = CARTESIAN_POINT ( 'NONE',  ( 0.000000000000000000, 0.000000000000000000, 7.000000000000000000 ) ) ;
#253 = PERSON_AND_ORGANIZATION ( #138, #142 ) ;
#254 = DIRECTION ( 'NONE',  ( -0.000000000000000000, -0.000000000000000000, -1.000000000000000000 ) ) ;
#255 = COORDINATED_UNIVERSAL_TIME_OFFSET ( 1, 0, .AHEAD. ) ;
ENDSEC;
END-ISO-10303-21;
