ISO-10303-21;
HEADER;
FILE_DESCRIPTION (( 'STEP AP203' ),
    '1' );
FILE_NAME ('2ab1.STEP',
    '2023-02-13T14:46:35',
    ( '' ),
    ( '' ),
    'SwSTEP 2.0',
    'SolidWorks 2019',
    '' );
FILE_SCHEMA (( 'CONFIG_CONTROL_DESIGN' ));
ENDSEC;

DATA;
#1 = ORIENTED_EDGE ( 'NONE', *, *, #67, .F. ) ;
#2 = DIRECTION ( 'NONE',  ( -1.000000000000000000, 0.000000000000000000, 0.000000000000000000 ) ) ;
#3 = ORIENTED_EDGE ( 'NONE', *, *, #58, .F. ) ;
#4 = APPROVAL_DATE_TIME ( #180, #12 ) ;
#5 = EDGE_LOOP ( 'NONE', ( #239, #122 ) ) ;
#6 = FACE_BOUND ( 'NONE', #195, .T. ) ;
#7 = SECURITY_CLASSIFICATION ( '', '', #13 ) ;
#8 = CARTESIAN_POINT ( 'NONE',  ( -3.750000000000000000, 0.000000000000000000, 315.0000000000000000 ) ) ;
#9 = CALENDAR_DATE ( 2023, 13, 2 ) ;
#10 = CARTESIAN_POINT ( 'NONE',  ( 6.000000000000000888, 7.347880794884120722E-16, 5.000000000000000000 ) ) ;
#11 = CC_DESIGN_APPROVAL ( #255, ( #46 ) ) ;
#12 = APPROVAL ( #240, 'NEURÈENÝ' ) ;
#13 = SECURITY_CLASSIFICATION_LEVEL ( 'unclassified' ) ;
#14 = PRODUCT_DEFINITION_FORMATION_WITH_SPECIFIED_SOURCE ( 'LIBOVOLNÝ', '', #182, .NOT_KNOWN. ) ;
#15 = AXIS2_PLACEMENT_3D ( 'NONE', #233, #127, #135 ) ;
#16 = FACE_OUTER_BOUND ( 'NONE', #207, .T. ) ;
#17 = DIRECTION ( 'NONE',  ( -1.000000000000000000, 0.000000000000000000, 0.000000000000000000 ) ) ;
#18 = LOCAL_TIME ( 15, 46, 35.00000000000000000, #143 ) ;
#19 = ORIENTED_EDGE ( 'NONE', *, *, #213, .F. ) ;
#20 = DIRECTION ( 'NONE',  ( 0.000000000000000000, 0.000000000000000000, 1.000000000000000000 ) ) ;
#21 = EDGE_CURVE ( 'NONE', #245, #33, #162, .T. ) ;
#22 = CLOSED_SHELL ( 'NONE', ( #83, #203, #221, #177, #52, #187, #23 ) ) ;
#23 = ADVANCED_FACE ( 'NONE', ( #175 ), #130, .T. ) ;
#24 = APPROVAL_STATUS ( 'not_yet_approved' ) ;
#25 = APPROVAL_ROLE ( '' ) ;
#26 = ORIENTED_EDGE ( 'NONE', *, *, #101, .T. ) ;
#27 = FACE_OUTER_BOUND ( 'NONE', #111, .T. ) ;
#28 = ORIENTED_EDGE ( 'NONE', *, *, #192, .F. ) ;
#29 = PERSON ( 'NEURÈENÝ', 'NEURÈENÝ', 'NEURÈENÝ', ('NEURÈENÝ'), ('NEURÈENÝ'), ('NEURÈENÝ') ) ;
#30 = CARTESIAN_POINT ( 'NONE',  ( 0.000000000000000000, 0.000000000000000000, 315.0000000000000000 ) ) ;
#31 = AXIS2_PLACEMENT_3D ( 'NONE', #208, #247, #158 ) ;
#32 = DIRECTION ( 'NONE',  ( 0.000000000000000000, 0.000000000000000000, 1.000000000000000000 ) ) ;
#33 = VERTEX_POINT ( 'NONE', #155 ) ;
#34 = DIRECTION ( 'NONE',  ( 1.000000000000000000, 0.000000000000000000, 0.000000000000000000 ) ) ;
#35 = APPROVAL_PERSON_ORGANIZATION ( #66, #255, #104 ) ;
#36 = PRODUCT_RELATED_PRODUCT_CATEGORY ( 'detail', '', ( #182 ) ) ;
#37 = EDGE_CURVE ( 'NONE', #55, #134, #131, .T. ) ;
#38 = LOCAL_TIME ( 15, 46, 35.00000000000000000, #118 ) ;
#39 = EDGE_LOOP ( 'NONE', ( #107, #28, #202, #142 ) ) ;
#40 = CYLINDRICAL_SURFACE ( 'NONE', #209, 6.000000000000000888 ) ;
#41 = PERSON_AND_ORGANIZATION_ROLE ( 'creator' ) ;
#42 = ORIENTED_EDGE ( 'NONE', *, *, #113, .F. ) ;
#43 = CIRCLE ( 'NONE', #54, 3.750000000000000000 ) ;
#44 = VERTEX_POINT ( 'NONE', #8 ) ;
#45 = DIRECTION ( 'NONE',  ( -0.000000000000000000, -0.000000000000000000, -1.000000000000000000 ) ) ;
#46 = PRODUCT_DEFINITION ( 'NEZNÁMÝ', '', #14, #249 ) ;
#47 = CARTESIAN_POINT ( 'NONE',  ( 0.000000000000000000, 0.000000000000000000, 5.000000000000000000 ) ) ;
#48 = DIRECTION ( 'NONE',  ( 1.000000000000000000, 0.000000000000000000, 0.000000000000000000 ) ) ;
#49 = PERSON_AND_ORGANIZATION ( #29, #154 ) ;
#50 = CIRCLE ( 'NONE', #15, 6.000000000000000888 ) ;
#51 = MECHANICAL_CONTEXT ( 'NONE', #116, 'mechanical' ) ;
#52 = ADVANCED_FACE ( 'NONE', ( #76 ), #87, .F. ) ;
#53 = DIRECTION ( 'NONE',  ( -0.000000000000000000, -0.000000000000000000, -1.000000000000000000 ) ) ;
#54 = AXIS2_PLACEMENT_3D ( 'NONE', #224, #144, #172 ) ;
#55 = VERTEX_POINT ( 'NONE', #171 ) ;
#56 = DIRECTION ( 'NONE',  ( 0.000000000000000000, 0.000000000000000000, 1.000000000000000000 ) ) ;
#57 = AXIS2_PLACEMENT_3D ( 'NONE', #30, #191, #228 ) ;
#58 = EDGE_CURVE ( 'NONE', #33, #245, #174, .T. ) ;
#59 = DIRECTION ( 'NONE',  ( -0.000000000000000000, -0.000000000000000000, -1.000000000000000000 ) ) ;
#60 = DIRECTION ( 'NONE',  ( -0.000000000000000000, -0.000000000000000000, -1.000000000000000000 ) ) ;
#61 = EDGE_LOOP ( 'NONE', ( #102, #214 ) ) ;
#62 = CARTESIAN_POINT ( 'NONE',  ( 0.000000000000000000, 0.000000000000000000, 315.0000000000000000 ) ) ;
#63 = CARTESIAN_POINT ( 'NONE',  ( 6.000000000000000888, 7.347880794884120722E-16, 0.000000000000000000 ) ) ;
#64 = VERTEX_POINT ( 'NONE', #212 ) ;
#65 = LINE ( 'NONE', #149, #78 ) ;
#66 = PERSON_AND_ORGANIZATION ( #29, #154 ) ;
#67 = EDGE_CURVE ( 'NONE', #33, #64, #230, .T. ) ;
#68 = CARTESIAN_POINT ( 'NONE',  ( 0.000000000000000000, 0.000000000000000000, 5.000000000000000000 ) ) ;
#69 =( LENGTH_UNIT ( ) NAMED_UNIT ( * ) SI_UNIT ( .MILLI., .METRE. ) );
#70 = ORIENTED_EDGE ( 'NONE', *, *, #73, .T. ) ;
#71 = DIRECTION ( 'NONE',  ( 1.000000000000000000, 0.000000000000000000, 0.000000000000000000 ) ) ;
#72 = AXIS2_PLACEMENT_3D ( 'NONE', #137, #185, #17 ) ;
#73 = EDGE_CURVE ( 'NONE', #252, #64, #50, .T. ) ;
#74 = CYLINDRICAL_SURFACE ( 'NONE', #253, 3.750000000000000000 ) ;
#75 = PERSON_AND_ORGANIZATION_ROLE ( 'design_owner' ) ;
#76 = FACE_OUTER_BOUND ( 'NONE', #166, .T. ) ;
#77 = APPROVAL ( #24, 'NEURÈENÝ' ) ;
#78 = VECTOR ( 'NONE', #45, 1000.000000000000000 ) ;
#79 = CARTESIAN_POINT ( 'NONE',  ( 0.000000000000000000, 0.000000000000000000, 0.000000000000000000 ) ) ;
#80 = CC_DESIGN_DATE_AND_TIME_ASSIGNMENT ( #197, #97, ( #7 ) ) ;
#81 = ORIENTED_EDGE ( 'NONE', *, *, #213, .T. ) ;
#82 = PLANE ( 'NONE',  #123 ) ;
#83 = ADVANCED_FACE ( 'NONE', ( #27 ), #210, .T. ) ;
#84 = ORIENTED_EDGE ( 'NONE', *, *, #67, .T. ) ;
#85 = DIRECTION ( 'NONE',  ( 0.000000000000000000, 0.000000000000000000, 1.000000000000000000 ) ) ;
#86 = ORIENTED_EDGE ( 'NONE', *, *, #139, .F. ) ;
#87 = PLANE ( 'NONE',  #31 ) ;
#88 = CALENDAR_DATE ( 2023, 13, 2 ) ;
#89 = CARTESIAN_POINT ( 'NONE',  ( 0.000000000000000000, 0.000000000000000000, 315.0000000000000000 ) ) ;
#90 = CIRCLE ( 'NONE', #217, 6.000000000000000888 ) ;
#91 = VECTOR ( 'NONE', #138, 1000.000000000000000 ) ;
#92 = EDGE_CURVE ( 'NONE', #146, #44, #205, .T. ) ;
#93 = FACE_OUTER_BOUND ( 'NONE', #39, .T. ) ;
#94 = CARTESIAN_POINT ( 'NONE',  ( 0.000000000000000000, 0.000000000000000000, 0.000000000000000000 ) ) ;
#95 =( GEOMETRIC_REPRESENTATION_CONTEXT ( 3 ) GLOBAL_UNCERTAINTY_ASSIGNED_CONTEXT ( ( #114 ) ) GLOBAL_UNIT_ASSIGNED_CONTEXT ( ( #69, #188, #190 ) ) REPRESENTATION_CONTEXT ( 'NONE', 'WORKASPACE' ) );
#96 = DATE_AND_TIME ( #147, #226 ) ;
#97 = DATE_TIME_ROLE ( 'classification_date' ) ;
#98 = VECTOR ( 'NONE', #53, 1000.000000000000000 ) ;
#99 = DIRECTION ( 'NONE',  ( 1.000000000000000000, 0.000000000000000000, 0.000000000000000000 ) ) ;
#100 = CC_DESIGN_DATE_AND_TIME_ASSIGNMENT ( #96, #136, ( #46 ) ) ;
#101 = EDGE_CURVE ( 'NONE', #146, #134, #65, .T. ) ;
#102 = ORIENTED_EDGE ( 'NONE', *, *, #58, .T. ) ;
#103 = APPROVAL_STATUS ( 'not_yet_approved' ) ;
#104 = APPROVAL_ROLE ( '' ) ;
#105 = COORDINATED_UNIVERSAL_TIME_OFFSET ( 1, 0, .AHEAD. ) ;
#106 = CARTESIAN_POINT ( 'NONE',  ( 0.000000000000000000, 0.000000000000000000, 315.0000000000000000 ) ) ;
#107 = ORIENTED_EDGE ( 'NONE', *, *, #101, .F. ) ;
#108 = CALENDAR_DATE ( 2023, 13, 2 ) ;
#109 = LOCAL_TIME ( 15, 46, 35.00000000000000000, #105 ) ;
#110 = ADVANCED_BREP_SHAPE_REPRESENTATION ( '2ab1', ( #242, #167 ), #95 ) ;
#111 = EDGE_LOOP ( 'NONE', ( #225, #26, #148, #86 ) ) ;
#112 = APPLICATION_PROTOCOL_DEFINITION ( 'international standard', 'config_control_design', 1994, #116 ) ;
#113 = EDGE_CURVE ( 'NONE', #245, #252, #115, .T. ) ;
#114 = UNCERTAINTY_MEASURE_WITH_UNIT (LENGTH_MEASURE( 1.000000000000000082E-05 ), #69, 'distance_accuracy_value', 'NONE');
#115 = LINE ( 'NONE', #235, #91 ) ;
#116 = APPLICATION_CONTEXT ( 'configuration controlled 3d designs of mechanical parts and assemblies' ) ;
#117 = EDGE_LOOP ( 'NONE', ( #42, #3, #84, #81 ) ) ;
#118 = COORDINATED_UNIVERSAL_TIME_OFFSET ( 1, 0, .AHEAD. ) ;
#119 = PERSON_AND_ORGANIZATION_ROLE ( 'creator' ) ;
#120 = CARTESIAN_POINT ( 'NONE',  ( 0.000000000000000000, 0.000000000000000000, 5.000000000000000000 ) ) ;
#121 = PERSON_AND_ORGANIZATION ( #29, #154 ) ;
#122 = ORIENTED_EDGE ( 'NONE', *, *, #92, .T. ) ;
#123 = AXIS2_PLACEMENT_3D ( 'NONE', #68, #211, #189 ) ;
#124 = CC_DESIGN_PERSON_AND_ORGANIZATION_ASSIGNMENT ( #254, #236, ( #7 ) ) ;
#125 = AXIS2_PLACEMENT_3D ( 'NONE', #176, #156, #71 ) ;
#126 = ORIENTED_EDGE ( 'NONE', *, *, #37, .F. ) ;
#127 = DIRECTION ( 'NONE',  ( 0.000000000000000000, 0.000000000000000000, 1.000000000000000000 ) ) ;
#128 = APPROVAL_PERSON_ORGANIZATION ( #204, #12, #232 ) ;
#129 = CC_DESIGN_PERSON_AND_ORGANIZATION_ASSIGNMENT ( #49, #75, ( #182 ) ) ;
#130 = PLANE ( 'NONE',  #170 ) ;
#131 = CIRCLE ( 'NONE', #125, 3.750000000000000000 ) ;
#132 = COORDINATED_UNIVERSAL_TIME_OFFSET ( 1, 0, .AHEAD. ) ;
#133 = DIRECTION ( 'NONE',  ( 0.000000000000000000, 0.000000000000000000, 1.000000000000000000 ) ) ;
#134 = VERTEX_POINT ( 'NONE', #222 ) ;
#135 = DIRECTION ( 'NONE',  ( 1.000000000000000000, 0.000000000000000000, 0.000000000000000000 ) ) ;
#136 = DATE_TIME_ROLE ( 'creation_date' ) ;
#137 = CARTESIAN_POINT ( 'NONE',  ( 0.000000000000000000, 0.000000000000000000, 5.000000000000000000 ) ) ;
#138 = DIRECTION ( 'NONE',  ( -0.000000000000000000, -0.000000000000000000, -1.000000000000000000 ) ) ;
#139 = EDGE_CURVE ( 'NONE', #44, #55, #198, .T. ) ;
#140 = AXIS2_PLACEMENT_3D ( 'NONE', #231, #56, #251 ) ;
#141 = PERSON_AND_ORGANIZATION ( #29, #154 ) ;
#142 = ORIENTED_EDGE ( 'NONE', *, *, #37, .T. ) ;
#143 = COORDINATED_UNIVERSAL_TIME_OFFSET ( 1, 0, .AHEAD. ) ;
#144 = DIRECTION ( 'NONE',  ( 0.000000000000000000, 0.000000000000000000, 1.000000000000000000 ) ) ;
#145 = LOCAL_TIME ( 15, 46, 35.00000000000000000, #132 ) ;
#146 = VERTEX_POINT ( 'NONE', #219 ) ;
#147 = CALENDAR_DATE ( 2023, 13, 2 ) ;
#148 = ORIENTED_EDGE ( 'NONE', *, *, #153, .T. ) ;
#149 = CARTESIAN_POINT ( 'NONE',  ( 3.750000000000000000, 4.592425496802573972E-16, 315.0000000000000000 ) ) ;
#150 = DATE_AND_TIME ( #9, #18 ) ;
#151 = PRODUCT_DEFINITION_SHAPE ( 'NONE', 'NONE',  #46 ) ;
#152 = APPROVAL_DATE_TIME ( #150, #255 ) ;
#153 = EDGE_CURVE ( 'NONE', #134, #55, #43, .T. ) ;
#154 = ORGANIZATION ( 'NEURÈENÝ', 'NEURÈENÝ', '' ) ;
#155 = CARTESIAN_POINT ( 'NONE',  ( -6.000000000000000888, 0.000000000000000000, 5.000000000000000000 ) ) ;
#156 = DIRECTION ( 'NONE',  ( 0.000000000000000000, 0.000000000000000000, 1.000000000000000000 ) ) ;
#157 = CARTESIAN_POINT ( 'NONE',  ( 0.000000000000000000, 0.000000000000000000, 315.0000000000000000 ) ) ;
#158 = DIRECTION ( 'NONE',  ( 1.000000000000000000, 0.000000000000000000, -0.000000000000000000 ) ) ;
#159 = CIRCLE ( 'NONE', #223, 3.750000000000000000 ) ;
#160 = CC_DESIGN_APPROVAL ( #12, ( #14 ) ) ;
#161 = CYLINDRICAL_SURFACE ( 'NONE', #72, 6.000000000000000888 ) ;
#162 = CIRCLE ( 'NONE', #140, 6.000000000000000888 ) ;
#163 = CC_DESIGN_PERSON_AND_ORGANIZATION_ASSIGNMENT ( #241, #41, ( #14 ) ) ;
#164 = DIRECTION ( 'NONE',  ( 1.000000000000000000, 0.000000000000000000, 0.000000000000000000 ) ) ;
#165 = AXIS2_PLACEMENT_3D ( 'NONE', #89, #168, #244 ) ;
#166 = EDGE_LOOP ( 'NONE', ( #19, #243 ) ) ;
#167 = AXIS2_PLACEMENT_3D ( 'NONE', #94, #133, #34 ) ;
#168 = DIRECTION ( 'NONE',  ( 0.000000000000000000, 0.000000000000000000, 1.000000000000000000 ) ) ;
#169 = FACE_OUTER_BOUND ( 'NONE', #61, .T. ) ;
#170 = AXIS2_PLACEMENT_3D ( 'NONE', #106, #32, #193 ) ;
#171 = CARTESIAN_POINT ( 'NONE',  ( -3.750000000000000000, 0.000000000000000000, 5.000000000000000000 ) ) ;
#172 = DIRECTION ( 'NONE',  ( 1.000000000000000000, 0.000000000000000000, 0.000000000000000000 ) ) ;
#173 = CC_DESIGN_PERSON_AND_ORGANIZATION_ASSIGNMENT ( #141, #119, ( #46 ) ) ;
#174 = CIRCLE ( 'NONE', #178, 6.000000000000000888 ) ;
#175 = FACE_OUTER_BOUND ( 'NONE', #5, .T. ) ;
#176 = CARTESIAN_POINT ( 'NONE',  ( 0.000000000000000000, 0.000000000000000000, 5.000000000000000000 ) ) ;
#177 = ADVANCED_FACE ( 'NONE', ( #6, #169 ), #82, .T. ) ;
#178 = AXIS2_PLACEMENT_3D ( 'NONE', #47, #85, #48 ) ;
#179 = CALENDAR_DATE ( 2023, 13, 2 ) ;
#180 = DATE_AND_TIME ( #108, #109 ) ;
#181 = FACE_OUTER_BOUND ( 'NONE', #117, .T. ) ;
#182 = PRODUCT ( '2ab1', '2ab1', '', ( #51 ) ) ;
#183 = DIRECTION ( 'NONE',  ( -0.000000000000000000, -0.000000000000000000, -1.000000000000000000 ) ) ;
#184 = COORDINATED_UNIVERSAL_TIME_OFFSET ( 1, 0, .AHEAD. ) ;
#185 = DIRECTION ( 'NONE',  ( -0.000000000000000000, -0.000000000000000000, -1.000000000000000000 ) ) ;
#186 = CC_DESIGN_APPROVAL ( #77, ( #7 ) ) ;
#187 = ADVANCED_FACE ( 'NONE', ( #93 ), #74, .T. ) ;
#188 =( NAMED_UNIT ( * ) PLANE_ANGLE_UNIT ( ) SI_UNIT ( $, .RADIAN. ) );
#189 = DIRECTION ( 'NONE',  ( 1.000000000000000000, 0.000000000000000000, -0.000000000000000000 ) ) ;
#190 =( NAMED_UNIT ( * ) SI_UNIT ( $, .STERADIAN. ) SOLID_ANGLE_UNIT ( ) );
#191 = DIRECTION ( 'NONE',  ( -0.000000000000000000, -0.000000000000000000, -1.000000000000000000 ) ) ;
#192 = EDGE_CURVE ( 'NONE', #44, #146, #159, .T. ) ;
#193 = DIRECTION ( 'NONE',  ( 1.000000000000000000, 0.000000000000000000, -0.000000000000000000 ) ) ;
#194 = APPROVAL_DATE_TIME ( #215, #77 ) ;
#195 = EDGE_LOOP ( 'NONE', ( #126, #237 ) ) ;
#196 = SHAPE_DEFINITION_REPRESENTATION ( #151, #110 ) ;
#197 = DATE_AND_TIME ( #88, #38 ) ;
#198 = LINE ( 'NONE', #201, #234 ) ;
#199 = ORIENTED_EDGE ( 'NONE', *, *, #21, .F. ) ;
#200 = DIRECTION ( 'NONE',  ( -1.000000000000000000, 0.000000000000000000, 0.000000000000000000 ) ) ;
#201 = CARTESIAN_POINT ( 'NONE',  ( -3.750000000000000000, 0.000000000000000000, 315.0000000000000000 ) ) ;
#202 = ORIENTED_EDGE ( 'NONE', *, *, #139, .T. ) ;
#203 = ADVANCED_FACE ( 'NONE', ( #16 ), #40, .T. ) ;
#204 = PERSON_AND_ORGANIZATION ( #29, #154 ) ;
#205 = CIRCLE ( 'NONE', #165, 3.750000000000000000 ) ;
#206 = APPLICATION_CONTEXT ( 'configuration controlled 3d designs of mechanical parts and assemblies' ) ;
#207 = EDGE_LOOP ( 'NONE', ( #199, #246, #70, #1 ) ) ;
#208 = CARTESIAN_POINT ( 'NONE',  ( 0.000000000000000000, 0.000000000000000000, 0.000000000000000000 ) ) ;
#209 = AXIS2_PLACEMENT_3D ( 'NONE', #120, #183, #2 ) ;
#210 = CYLINDRICAL_SURFACE ( 'NONE', #57, 3.750000000000000000 ) ;
#211 = DIRECTION ( 'NONE',  ( 0.000000000000000000, 0.000000000000000000, 1.000000000000000000 ) ) ;
#212 = CARTESIAN_POINT ( 'NONE',  ( -6.000000000000000888, 0.000000000000000000, 0.000000000000000000 ) ) ;
#213 = EDGE_CURVE ( 'NONE', #64, #252, #90, .T. ) ;
#214 = ORIENTED_EDGE ( 'NONE', *, *, #21, .T. ) ;
#215 = DATE_AND_TIME ( #179, #145 ) ;
#216 = PERSON_AND_ORGANIZATION ( #29, #154 ) ;
#217 = AXIS2_PLACEMENT_3D ( 'NONE', #79, #238, #99 ) ;
#218 = PERSON_AND_ORGANIZATION_ROLE ( 'design_supplier' ) ;
#219 = CARTESIAN_POINT ( 'NONE',  ( 3.750000000000000000, 4.592425496802573972E-16, 315.0000000000000000 ) ) ;
#220 = CC_DESIGN_SECURITY_CLASSIFICATION ( #7, ( #14 ) ) ;
#221 = ADVANCED_FACE ( 'NONE', ( #181 ), #161, .T. ) ;
#222 = CARTESIAN_POINT ( 'NONE',  ( 3.750000000000000000, 4.592425496802573972E-16, 5.000000000000000000 ) ) ;
#223 = AXIS2_PLACEMENT_3D ( 'NONE', #62, #20, #164 ) ;
#224 = CARTESIAN_POINT ( 'NONE',  ( 0.000000000000000000, 0.000000000000000000, 5.000000000000000000 ) ) ;
#225 = ORIENTED_EDGE ( 'NONE', *, *, #92, .F. ) ;
#226 = LOCAL_TIME ( 15, 46, 35.00000000000000000, #184 ) ;
#227 = CC_DESIGN_PERSON_AND_ORGANIZATION_ASSIGNMENT ( #121, #218, ( #14 ) ) ;
#228 = DIRECTION ( 'NONE',  ( -1.000000000000000000, 0.000000000000000000, 0.000000000000000000 ) ) ;
#229 = APPROVAL_PERSON_ORGANIZATION ( #216, #77, #25 ) ;
#230 = LINE ( 'NONE', #248, #98 ) ;
#231 = CARTESIAN_POINT ( 'NONE',  ( 0.000000000000000000, 0.000000000000000000, 5.000000000000000000 ) ) ;
#232 = APPROVAL_ROLE ( '' ) ;
#233 = CARTESIAN_POINT ( 'NONE',  ( 0.000000000000000000, 0.000000000000000000, 0.000000000000000000 ) ) ;
#234 = VECTOR ( 'NONE', #60, 1000.000000000000000 ) ;
#235 = CARTESIAN_POINT ( 'NONE',  ( 6.000000000000000888, 7.347880794884120722E-16, 5.000000000000000000 ) ) ;
#236 = PERSON_AND_ORGANIZATION_ROLE ( 'classification_officer' ) ;
#237 = ORIENTED_EDGE ( 'NONE', *, *, #153, .F. ) ;
#238 = DIRECTION ( 'NONE',  ( 0.000000000000000000, 0.000000000000000000, 1.000000000000000000 ) ) ;
#239 = ORIENTED_EDGE ( 'NONE', *, *, #192, .T. ) ;
#240 = APPROVAL_STATUS ( 'not_yet_approved' ) ;
#241 = PERSON_AND_ORGANIZATION ( #29, #154 ) ;
#242 = MANIFOLD_SOLID_BREP ( 'Pøidat vysunutím3', #22 ) ;
#243 = ORIENTED_EDGE ( 'NONE', *, *, #73, .F. ) ;
#244 = DIRECTION ( 'NONE',  ( 1.000000000000000000, 0.000000000000000000, 0.000000000000000000 ) ) ;
#245 = VERTEX_POINT ( 'NONE', #10 ) ;
#246 = ORIENTED_EDGE ( 'NONE', *, *, #113, .T. ) ;
#247 = DIRECTION ( 'NONE',  ( 0.000000000000000000, 0.000000000000000000, 1.000000000000000000 ) ) ;
#248 = CARTESIAN_POINT ( 'NONE',  ( -6.000000000000000888, 0.000000000000000000, 5.000000000000000000 ) ) ;
#249 = DESIGN_CONTEXT ( 'detailed design', #206, 'design' ) ;
#250 = APPLICATION_PROTOCOL_DEFINITION ( 'international standard', 'config_control_design', 1994, #206 ) ;
#251 = DIRECTION ( 'NONE',  ( 1.000000000000000000, 0.000000000000000000, 0.000000000000000000 ) ) ;
#252 = VERTEX_POINT ( 'NONE', #63 ) ;
#253 = AXIS2_PLACEMENT_3D ( 'NONE', #157, #59, #200 ) ;
#254 = PERSON_AND_ORGANIZATION ( #29, #154 ) ;
#255 = APPROVAL ( #103, 'NEURÈENÝ' ) ;
ENDSEC;
END-ISO-10303-21;
