ISO-10303-21;
HEADER;
FILE_DESCRIPTION (( 'STEP AP203' ),
    '1' );
FILE_NAME ('c6d7.STEP',
    '2023-02-13T07:32:29',
    ( '' ),
    ( '' ),
    'SwSTEP 2.0',
    'SolidWorks 2019',
    '' );
FILE_SCHEMA (( 'CONFIG_CONTROL_DESIGN' ));
ENDSEC;

DATA;
#1 = FACE_OUTER_BOUND ( 'NONE', #124, .T. ) ;
#2 = CC_DESIGN_PERSON_AND_ORGANIZATION_ASSIGNMENT ( #44, #14, ( #47 ) ) ;
#3 = VERTEX_POINT ( 'NONE', #87 ) ;
#4 = DIRECTION ( 'NONE',  ( -0.000000000000000000, -0.000000000000000000, -1.000000000000000000 ) ) ;
#5 = FACE_OUTER_BOUND ( 'NONE', #13, .T. ) ;
#6 = LOCAL_TIME ( 8, 32, 29.00000000000000000, #92 ) ;
#7 = APPROVAL ( #114, 'NEURÈENÝ' ) ;
#8 = DIRECTION ( 'NONE',  ( 0.000000000000000000, 0.000000000000000000, 1.000000000000000000 ) ) ;
#9 = ORIENTED_EDGE ( 'NONE', *, *, #177, .F. ) ;
#10 = LINE ( 'NONE', #86, #69 ) ;
#11 = ORIENTED_EDGE ( 'NONE', *, *, #230, .T. ) ;
#12 = DIRECTION ( 'NONE',  ( 1.000000000000000000, 0.000000000000000000, 0.000000000000000000 ) ) ;
#13 = EDGE_LOOP ( 'NONE', ( #214, #211, #127, #93 ) ) ;
#14 = PERSON_AND_ORGANIZATION_ROLE ( 'classification_officer' ) ;
#15 =( NAMED_UNIT ( * ) PLANE_ANGLE_UNIT ( ) SI_UNIT ( $, .RADIAN. ) );
#16 = COORDINATED_UNIVERSAL_TIME_OFFSET ( 1, 0, .AHEAD. ) ;
#17 = PERSON_AND_ORGANIZATION ( #251, #229 ) ;
#18 = CIRCLE ( 'NONE', #126, 16.00000000000000000 ) ;
#19 = DIRECTION ( 'NONE',  ( 1.000000000000000000, 0.000000000000000000, 0.000000000000000000 ) ) ;
#20 = ADVANCED_FACE ( 'NONE', ( #55, #242 ), #188, .T. ) ;
#21 = DIRECTION ( 'NONE',  ( 0.000000000000000000, 0.000000000000000000, 1.000000000000000000 ) ) ;
#22 = CARTESIAN_POINT ( 'NONE',  ( 0.000000000000000000, 0.000000000000000000, 200.0000000000000000 ) ) ;
#23 = CARTESIAN_POINT ( 'NONE',  ( 12.50000000000000000, 1.530808498934191521E-15, 10.00000000000000000 ) ) ;
#24 = ADVANCED_FACE ( 'NONE', ( #5 ), #121, .T. ) ;
#25 = VERTEX_POINT ( 'NONE', #37 ) ;
#26 = FACE_OUTER_BOUND ( 'NONE', #182, .T. ) ;
#27 = AXIS2_PLACEMENT_3D ( 'NONE', #101, #74, #88 ) ;
#28 = DIRECTION ( 'NONE',  ( 0.000000000000000000, 0.000000000000000000, 1.000000000000000000 ) ) ;
#29 = CC_DESIGN_APPROVAL ( #7, ( #52 ) ) ;
#30 = ORIENTED_EDGE ( 'NONE', *, *, #151, .T. ) ;
#31 = VERTEX_POINT ( 'NONE', #23 ) ;
#32 = APPROVAL_PERSON_ORGANIZATION ( #17, #7, #196 ) ;
#33 = CIRCLE ( 'NONE', #78, 16.00000000000000000 ) ;
#34 = CIRCLE ( 'NONE', #117, 12.50000000000000000 ) ;
#35 = CC_DESIGN_PERSON_AND_ORGANIZATION_ASSIGNMENT ( #198, #166, ( #219 ) ) ;
#36 = CARTESIAN_POINT ( 'NONE',  ( 12.50000000000000000, 1.530808498934191521E-15, 200.0000000000000000 ) ) ;
#37 = CARTESIAN_POINT ( 'NONE',  ( -16.00000000000000000, 0.000000000000000000, 10.00000000000000000 ) ) ;
#38 = CARTESIAN_POINT ( 'NONE',  ( 0.000000000000000000, 0.000000000000000000, 10.00000000000000000 ) ) ;
#39 = DIRECTION ( 'NONE',  ( 1.000000000000000000, 0.000000000000000000, -0.000000000000000000 ) ) ;
#40 = DIRECTION ( 'NONE',  ( 0.000000000000000000, 0.000000000000000000, 1.000000000000000000 ) ) ;
#41 = ORIENTED_EDGE ( 'NONE', *, *, #65, .T. ) ;
#42 = VERTEX_POINT ( 'NONE', #238 ) ;
#43 = APPROVAL ( #153, 'NEURÈENÝ' ) ;
#44 = PERSON_AND_ORGANIZATION ( #251, #229 ) ;
#45 =( GEOMETRIC_REPRESENTATION_CONTEXT ( 3 ) GLOBAL_UNCERTAINTY_ASSIGNED_CONTEXT ( ( #178 ) ) GLOBAL_UNIT_ASSIGNED_CONTEXT ( ( #147, #15, #67 ) ) REPRESENTATION_CONTEXT ( 'NONE', 'WORKASPACE' ) );
#46 = ORIENTED_EDGE ( 'NONE', *, *, #155, .F. ) ;
#47 = SECURITY_CLASSIFICATION ( '', '', #112 ) ;
#48 = DATE_AND_TIME ( #98, #118 ) ;
#49 = APPROVAL_ROLE ( '' ) ;
#50 = VECTOR ( 'NONE', #201, 1000.000000000000000 ) ;
#51 = DIRECTION ( 'NONE',  ( 1.000000000000000000, 0.000000000000000000, 0.000000000000000000 ) ) ;
#52 = PRODUCT_DEFINITION ( 'NEZNÁMÝ', '', #219, #202 ) ;
#53 = FACE_OUTER_BOUND ( 'NONE', #161, .T. ) ;
#54 = VECTOR ( 'NONE', #120, 1000.000000000000000 ) ;
#55 = FACE_BOUND ( 'NONE', #60, .T. ) ;
#56 = EDGE_LOOP ( 'NONE', ( #9, #223, #241, #245 ) ) ;
#57 = CARTESIAN_POINT ( 'NONE',  ( 16.00000000000000000, 1.959434878635765131E-15, 10.00000000000000000 ) ) ;
#58 = CARTESIAN_POINT ( 'NONE',  ( 0.000000000000000000, 0.000000000000000000, 0.000000000000000000 ) ) ;
#59 = EDGE_CURVE ( 'NONE', #77, #25, #33, .T. ) ;
#60 = EDGE_LOOP ( 'NONE', ( #227, #193 ) ) ;
#61 = CYLINDRICAL_SURFACE ( 'NONE', #125, 12.50000000000000000 ) ;
#62 = DIRECTION ( 'NONE',  ( -0.000000000000000000, -0.000000000000000000, -1.000000000000000000 ) ) ;
#63 = PERSON_AND_ORGANIZATION ( #251, #229 ) ;
#64 = COORDINATED_UNIVERSAL_TIME_OFFSET ( 1, 0, .AHEAD. ) ;
#65 = EDGE_CURVE ( 'NONE', #31, #3, #34, .T. ) ;
#66 = AXIS2_PLACEMENT_3D ( 'NONE', #58, #203, #221 ) ;
#67 =( NAMED_UNIT ( * ) SI_UNIT ( $, .STERADIAN. ) SOLID_ANGLE_UNIT ( ) );
#68 = AXIS2_PLACEMENT_3D ( 'NONE', #141, #162, #145 ) ;
#69 = VECTOR ( 'NONE', #4, 1000.000000000000000 ) ;
#70 = ADVANCED_BREP_SHAPE_REPRESENTATION ( 'c6d7', ( #84, #136 ), #45 ) ;
#71 = DATE_TIME_ROLE ( 'creation_date' ) ;
#72 = ADVANCED_FACE ( 'NONE', ( #206 ), #103, .T. ) ;
#73 = CYLINDRICAL_SURFACE ( 'NONE', #27, 16.00000000000000000 ) ;
#74 = DIRECTION ( 'NONE',  ( -0.000000000000000000, -0.000000000000000000, -1.000000000000000000 ) ) ;
#75 = APPLICATION_CONTEXT ( 'configuration controlled 3d designs of mechanical parts and assemblies' ) ;
#76 = LINE ( 'NONE', #36, #54 ) ;
#77 = VERTEX_POINT ( 'NONE', #57 ) ;
#78 = AXIS2_PLACEMENT_3D ( 'NONE', #228, #40, #191 ) ;
#79 = FACE_OUTER_BOUND ( 'NONE', #157, .T. ) ;
#80 = CIRCLE ( 'NONE', #66, 16.00000000000000000 ) ;
#81 = DIRECTION ( 'NONE',  ( -1.000000000000000000, 0.000000000000000000, 0.000000000000000000 ) ) ;
#82 = ORIENTED_EDGE ( 'NONE', *, *, #194, .T. ) ;
#83 = APPLICATION_CONTEXT ( 'configuration controlled 3d designs of mechanical parts and assemblies' ) ;
#84 = MANIFOLD_SOLID_BREP ( 'Pøidat vysunutím3', #149 ) ;
#85 = CC_DESIGN_DATE_AND_TIME_ASSIGNMENT ( #152, #71, ( #52 ) ) ;
#86 = CARTESIAN_POINT ( 'NONE',  ( 16.00000000000000000, 1.959434878635765131E-15, 10.00000000000000000 ) ) ;
#87 = CARTESIAN_POINT ( 'NONE',  ( -12.50000000000000000, 0.000000000000000000, 10.00000000000000000 ) ) ;
#88 = DIRECTION ( 'NONE',  ( -1.000000000000000000, 0.000000000000000000, 0.000000000000000000 ) ) ;
#89 = PRODUCT ( 'c6d7', 'c6d7', '', ( #91 ) ) ;
#90 = APPROVAL_ROLE ( '' ) ;
#91 = MECHANICAL_CONTEXT ( 'NONE', #83, 'mechanical' ) ;
#92 = COORDINATED_UNIVERSAL_TIME_OFFSET ( 1, 0, .AHEAD. ) ;
#93 = ORIENTED_EDGE ( 'NONE', *, *, #190, .T. ) ;
#94 = AXIS2_PLACEMENT_3D ( 'NONE', #220, #21, #19 ) ;
#95 = PERSON_AND_ORGANIZATION ( #251, #229 ) ;
#96 = EDGE_CURVE ( 'NONE', #42, #197, #249, .T. ) ;
#97 = DIRECTION ( 'NONE',  ( 0.000000000000000000, 0.000000000000000000, 1.000000000000000000 ) ) ;
#98 = CALENDAR_DATE ( 2023, 13, 2 ) ;
#99 = PRODUCT_RELATED_PRODUCT_CATEGORY ( 'detail', '', ( #89 ) ) ;
#100 = CC_DESIGN_APPROVAL ( #115, ( #47 ) ) ;
#101 = CARTESIAN_POINT ( 'NONE',  ( 0.000000000000000000, 0.000000000000000000, 10.00000000000000000 ) ) ;
#102 = CARTESIAN_POINT ( 'NONE',  ( -16.00000000000000000, 0.000000000000000000, 10.00000000000000000 ) ) ;
#103 = CYLINDRICAL_SURFACE ( 'NONE', #218, 12.50000000000000000 ) ;
#104 = DIRECTION ( 'NONE',  ( 1.000000000000000000, 0.000000000000000000, 0.000000000000000000 ) ) ;
#105 = CARTESIAN_POINT ( 'NONE',  ( 0.000000000000000000, 0.000000000000000000, 200.0000000000000000 ) ) ;
#106 = PLANE ( 'NONE',  #107 ) ;
#107 = AXIS2_PLACEMENT_3D ( 'NONE', #187, #8, #130 ) ;
#108 = DIRECTION ( 'NONE',  ( 1.000000000000000000, 0.000000000000000000, 0.000000000000000000 ) ) ;
#109 = ADVANCED_FACE ( 'NONE', ( #1 ), #73, .T. ) ;
#110 = ORIENTED_EDGE ( 'NONE', *, *, #59, .F. ) ;
#111 = APPROVAL_PERSON_ORGANIZATION ( #252, #43, #49 ) ;
#112 = SECURITY_CLASSIFICATION_LEVEL ( 'unclassified' ) ;
#113 = PERSON_AND_ORGANIZATION_ROLE ( 'design_supplier' ) ;
#114 = APPROVAL_STATUS ( 'not_yet_approved' ) ;
#115 = APPROVAL ( #146, 'NEURÈENÝ' ) ;
#116 = EDGE_CURVE ( 'NONE', #25, #197, #244, .T. ) ;
#117 = AXIS2_PLACEMENT_3D ( 'NONE', #38, #28, #108 ) ;
#118 = LOCAL_TIME ( 8, 32, 29.00000000000000000, #16 ) ;
#119 = LOCAL_TIME ( 8, 32, 29.00000000000000000, #212 ) ;
#120 = DIRECTION ( 'NONE',  ( -0.000000000000000000, -0.000000000000000000, -1.000000000000000000 ) ) ;
#121 = CYLINDRICAL_SURFACE ( 'NONE', #199, 16.00000000000000000 ) ;
#122 = ORIENTED_EDGE ( 'NONE', *, *, #96, .T. ) ;
#123 = DIRECTION ( 'NONE',  ( 0.000000000000000000, 0.000000000000000000, 1.000000000000000000 ) ) ;
#124 = EDGE_LOOP ( 'NONE', ( #110, #11, #122, #189 ) ) ;
#125 = AXIS2_PLACEMENT_3D ( 'NONE', #138, #179, #237 ) ;
#126 = AXIS2_PLACEMENT_3D ( 'NONE', #183, #140, #104 ) ;
#127 = ORIENTED_EDGE ( 'NONE', *, *, #116, .T. ) ;
#128 = DIRECTION ( 'NONE',  ( 1.000000000000000000, 0.000000000000000000, 0.000000000000000000 ) ) ;
#129 = ORIENTED_EDGE ( 'NONE', *, *, #96, .F. ) ;
#130 = DIRECTION ( 'NONE',  ( 1.000000000000000000, 0.000000000000000000, -0.000000000000000000 ) ) ;
#131 = DATE_AND_TIME ( #167, #119 ) ;
#132 = ORIENTED_EDGE ( 'NONE', *, *, #155, .T. ) ;
#133 = CC_DESIGN_PERSON_AND_ORGANIZATION_ASSIGNMENT ( #213, #255, ( #52 ) ) ;
#134 = APPLICATION_PROTOCOL_DEFINITION ( 'international standard', 'config_control_design', 1994, #75 ) ;
#135 = DATE_AND_TIME ( #217, #139 ) ;
#136 = AXIS2_PLACEMENT_3D ( 'NONE', #170, #97, #173 ) ;
#137 = ADVANCED_FACE ( 'NONE', ( #53 ), #61, .T. ) ;
#138 = CARTESIAN_POINT ( 'NONE',  ( 0.000000000000000000, 0.000000000000000000, 200.0000000000000000 ) ) ;
#139 = LOCAL_TIME ( 8, 32, 29.00000000000000000, #231 ) ;
#140 = DIRECTION ( 'NONE',  ( 0.000000000000000000, 0.000000000000000000, 1.000000000000000000 ) ) ;
#141 = CARTESIAN_POINT ( 'NONE',  ( 0.000000000000000000, 0.000000000000000000, 10.00000000000000000 ) ) ;
#142 = EDGE_CURVE ( 'NONE', #226, #3, #233, .T. ) ;
#143 = CARTESIAN_POINT ( 'NONE',  ( 0.000000000000000000, 0.000000000000000000, 0.000000000000000000 ) ) ;
#144 = CARTESIAN_POINT ( 'NONE',  ( 0.000000000000000000, 0.000000000000000000, 0.000000000000000000 ) ) ;
#145 = DIRECTION ( 'NONE',  ( 1.000000000000000000, 0.000000000000000000, -0.000000000000000000 ) ) ;
#146 = APPROVAL_STATUS ( 'not_yet_approved' ) ;
#147 =( LENGTH_UNIT ( ) NAMED_UNIT ( * ) SI_UNIT ( .MILLI., .METRE. ) );
#148 = DATE_AND_TIME ( #247, #205 ) ;
#149 = CLOSED_SHELL ( 'NONE', ( #137, #109, #24, #20, #232, #72, #250 ) ) ;
#150 = PERSON_AND_ORGANIZATION_ROLE ( 'design_owner' ) ;
#151 = EDGE_CURVE ( 'NONE', #226, #243, #200, .T. ) ;
#152 = DATE_AND_TIME ( #171, #6 ) ;
#153 = APPROVAL_STATUS ( 'not_yet_approved' ) ;
#154 = DIRECTION ( 'NONE',  ( 0.000000000000000000, 0.000000000000000000, 1.000000000000000000 ) ) ;
#155 = EDGE_CURVE ( 'NONE', #243, #226, #239, .T. ) ;
#156 = SHAPE_DEFINITION_REPRESENTATION ( #168, #70 ) ;
#157 = EDGE_LOOP ( 'NONE', ( #172, #129 ) ) ;
#158 = AXIS2_PLACEMENT_3D ( 'NONE', #143, #123, #39 ) ;
#159 = ORIENTED_EDGE ( 'NONE', *, *, #59, .T. ) ;
#160 = CARTESIAN_POINT ( 'NONE',  ( -16.00000000000000000, 0.000000000000000000, 0.000000000000000000 ) ) ;
#161 = EDGE_LOOP ( 'NONE', ( #46, #209, #41, #248 ) ) ;
#162 = DIRECTION ( 'NONE',  ( 0.000000000000000000, 0.000000000000000000, 1.000000000000000000 ) ) ;
#163 = DIRECTION ( 'NONE',  ( 0.000000000000000000, 0.000000000000000000, 1.000000000000000000 ) ) ;
#164 = CC_DESIGN_DATE_AND_TIME_ASSIGNMENT ( #131, #246, ( #47 ) ) ;
#165 = DIRECTION ( 'NONE',  ( -1.000000000000000000, 0.000000000000000000, 0.000000000000000000 ) ) ;
#166 = PERSON_AND_ORGANIZATION_ROLE ( 'creator' ) ;
#167 = CALENDAR_DATE ( 2023, 13, 2 ) ;
#168 = PRODUCT_DEFINITION_SHAPE ( 'NONE', 'NONE',  #52 ) ;
#169 = EDGE_CURVE ( 'NONE', #3, #31, #186, .T. ) ;
#170 = CARTESIAN_POINT ( 'NONE',  ( 0.000000000000000000, 0.000000000000000000, 0.000000000000000000 ) ) ;
#171 = CALENDAR_DATE ( 2023, 13, 2 ) ;
#172 = ORIENTED_EDGE ( 'NONE', *, *, #190, .F. ) ;
#173 = DIRECTION ( 'NONE',  ( 1.000000000000000000, 0.000000000000000000, 0.000000000000000000 ) ) ;
#174 = CC_DESIGN_APPROVAL ( #43, ( #219 ) ) ;
#175 = APPROVAL_DATE_TIME ( #48, #7 ) ;
#176 = APPROVAL_DATE_TIME ( #148, #115 ) ;
#177 = EDGE_CURVE ( 'NONE', #243, #31, #76, .T. ) ;
#178 = UNCERTAINTY_MEASURE_WITH_UNIT (LENGTH_MEASURE( 1.000000000000000082E-05 ), #147, 'distance_accuracy_value', 'NONE');
#179 = DIRECTION ( 'NONE',  ( -0.000000000000000000, -0.000000000000000000, -1.000000000000000000 ) ) ;
#180 = CARTESIAN_POINT ( 'NONE',  ( 0.000000000000000000, 0.000000000000000000, 10.00000000000000000 ) ) ;
#181 = DIRECTION ( 'NONE',  ( 0.000000000000000000, 0.000000000000000000, 1.000000000000000000 ) ) ;
#182 = EDGE_LOOP ( 'NONE', ( #30, #132 ) ) ;
#183 = CARTESIAN_POINT ( 'NONE',  ( 0.000000000000000000, 0.000000000000000000, 10.00000000000000000 ) ) ;
#184 = DIRECTION ( 'NONE',  ( -0.000000000000000000, -0.000000000000000000, -1.000000000000000000 ) ) ;
#185 = AXIS2_PLACEMENT_3D ( 'NONE', #144, #163, #12 ) ;
#186 = CIRCLE ( 'NONE', #235, 12.50000000000000000 ) ;
#187 = CARTESIAN_POINT ( 'NONE',  ( 0.000000000000000000, 0.000000000000000000, 200.0000000000000000 ) ) ;
#188 = PLANE ( 'NONE',  #68 ) ;
#189 = ORIENTED_EDGE ( 'NONE', *, *, #116, .F. ) ;
#190 = EDGE_CURVE ( 'NONE', #197, #42, #80, .T. ) ;
#191 = DIRECTION ( 'NONE',  ( 1.000000000000000000, 0.000000000000000000, 0.000000000000000000 ) ) ;
#192 = PERSON_AND_ORGANIZATION ( #251, #229 ) ;
#193 = ORIENTED_EDGE ( 'NONE', *, *, #65, .F. ) ;
#194 = EDGE_CURVE ( 'NONE', #25, #77, #18, .T. ) ;
#195 = CC_DESIGN_SECURITY_CLASSIFICATION ( #47, ( #219 ) ) ;
#196 = APPROVAL_ROLE ( '' ) ;
#197 = VERTEX_POINT ( 'NONE', #160 ) ;
#198 = PERSON_AND_ORGANIZATION ( #251, #229 ) ;
#199 = AXIS2_PLACEMENT_3D ( 'NONE', #208, #62, #165 ) ;
#200 = CIRCLE ( 'NONE', #254, 12.50000000000000000 ) ;
#201 = DIRECTION ( 'NONE',  ( -0.000000000000000000, -0.000000000000000000, -1.000000000000000000 ) ) ;
#202 = DESIGN_CONTEXT ( 'detailed design', #75, 'design' ) ;
#203 = DIRECTION ( 'NONE',  ( 0.000000000000000000, 0.000000000000000000, 1.000000000000000000 ) ) ;
#204 = EDGE_LOOP ( 'NONE', ( #82, #159 ) ) ;
#205 = LOCAL_TIME ( 8, 32, 29.00000000000000000, #64 ) ;
#206 = FACE_OUTER_BOUND ( 'NONE', #56, .T. ) ;
#207 = CARTESIAN_POINT ( 'NONE',  ( 12.50000000000000000, 1.530808498934191521E-15, 200.0000000000000000 ) ) ;
#208 = CARTESIAN_POINT ( 'NONE',  ( 0.000000000000000000, 0.000000000000000000, 10.00000000000000000 ) ) ;
#209 = ORIENTED_EDGE ( 'NONE', *, *, #177, .T. ) ;
#210 = CC_DESIGN_PERSON_AND_ORGANIZATION_ASSIGNMENT ( #192, #113, ( #219 ) ) ;
#211 = ORIENTED_EDGE ( 'NONE', *, *, #194, .F. ) ;
#212 = COORDINATED_UNIVERSAL_TIME_OFFSET ( 1, 0, .AHEAD. ) ;
#213 = PERSON_AND_ORGANIZATION ( #251, #229 ) ;
#214 = ORIENTED_EDGE ( 'NONE', *, *, #230, .F. ) ;
#215 = CC_DESIGN_PERSON_AND_ORGANIZATION_ASSIGNMENT ( #95, #150, ( #89 ) ) ;
#216 = APPROVAL_DATE_TIME ( #135, #43 ) ;
#217 = CALENDAR_DATE ( 2023, 13, 2 ) ;
#218 = AXIS2_PLACEMENT_3D ( 'NONE', #105, #184, #81 ) ;
#219 = PRODUCT_DEFINITION_FORMATION_WITH_SPECIFIED_SOURCE ( 'LIBOVOLNÝ', '', #89, .NOT_KNOWN. ) ;
#220 = CARTESIAN_POINT ( 'NONE',  ( 0.000000000000000000, 0.000000000000000000, 200.0000000000000000 ) ) ;
#221 = DIRECTION ( 'NONE',  ( 1.000000000000000000, 0.000000000000000000, 0.000000000000000000 ) ) ;
#222 = DIRECTION ( 'NONE',  ( -0.000000000000000000, -0.000000000000000000, -1.000000000000000000 ) ) ;
#223 = ORIENTED_EDGE ( 'NONE', *, *, #151, .F. ) ;
#224 = CARTESIAN_POINT ( 'NONE',  ( -12.50000000000000000, 0.000000000000000000, 200.0000000000000000 ) ) ;
#225 = APPROVAL_PERSON_ORGANIZATION ( #63, #115, #90 ) ;
#226 = VERTEX_POINT ( 'NONE', #224 ) ;
#227 = ORIENTED_EDGE ( 'NONE', *, *, #169, .F. ) ;
#228 = CARTESIAN_POINT ( 'NONE',  ( 0.000000000000000000, 0.000000000000000000, 10.00000000000000000 ) ) ;
#229 = ORGANIZATION ( 'NEURÈENÝ', 'NEURÈENÝ', '' ) ;
#230 = EDGE_CURVE ( 'NONE', #77, #42, #10, .T. ) ;
#231 = COORDINATED_UNIVERSAL_TIME_OFFSET ( 1, 0, .AHEAD. ) ;
#232 = ADVANCED_FACE ( 'NONE', ( #79 ), #240, .F. ) ;
#233 = LINE ( 'NONE', #236, #234 ) ;
#234 = VECTOR ( 'NONE', #222, 1000.000000000000000 ) ;
#235 = AXIS2_PLACEMENT_3D ( 'NONE', #180, #181, #128 ) ;
#236 = CARTESIAN_POINT ( 'NONE',  ( -12.50000000000000000, 0.000000000000000000, 200.0000000000000000 ) ) ;
#237 = DIRECTION ( 'NONE',  ( -1.000000000000000000, 0.000000000000000000, 0.000000000000000000 ) ) ;
#238 = CARTESIAN_POINT ( 'NONE',  ( 16.00000000000000000, 1.959434878635765131E-15, 0.000000000000000000 ) ) ;
#239 = CIRCLE ( 'NONE', #94, 12.50000000000000000 ) ;
#240 = PLANE ( 'NONE',  #158 ) ;
#241 = ORIENTED_EDGE ( 'NONE', *, *, #142, .T. ) ;
#242 = FACE_OUTER_BOUND ( 'NONE', #204, .T. ) ;
#243 = VERTEX_POINT ( 'NONE', #207 ) ;
#244 = LINE ( 'NONE', #102, #50 ) ;
#245 = ORIENTED_EDGE ( 'NONE', *, *, #169, .T. ) ;
#246 = DATE_TIME_ROLE ( 'classification_date' ) ;
#247 = CALENDAR_DATE ( 2023, 13, 2 ) ;
#248 = ORIENTED_EDGE ( 'NONE', *, *, #142, .F. ) ;
#249 = CIRCLE ( 'NONE', #185, 16.00000000000000000 ) ;
#250 = ADVANCED_FACE ( 'NONE', ( #26 ), #106, .T. ) ;
#251 = PERSON ( 'NEURÈENÝ', 'NEURÈENÝ', 'NEURÈENÝ', ('NEURÈENÝ'), ('NEURÈENÝ'), ('NEURÈENÝ') ) ;
#252 = PERSON_AND_ORGANIZATION ( #251, #229 ) ;
#253 = APPLICATION_PROTOCOL_DEFINITION ( 'international standard', 'config_control_design', 1994, #83 ) ;
#254 = AXIS2_PLACEMENT_3D ( 'NONE', #22, #154, #51 ) ;
#255 = PERSON_AND_ORGANIZATION_ROLE ( 'creator' ) ;
ENDSEC;
END-ISO-10303-21;
