ISO-10303-21;
HEADER;
FILE_DESCRIPTION (( 'STEP AP203' ),
    '1' );
FILE_NAME ('bc18.STEP',
    '2023-02-13T09:41:27',
    ( '' ),
    ( '' ),
    'SwSTEP 2.0',
    'SolidWorks 2019',
    '' );
FILE_SCHEMA (( 'CONFIG_CONTROL_DESIGN' ));
ENDSEC;

DATA;
#1 = DIRECTION ( 'NONE',  ( 0.000000000000000000, 0.000000000000000000, 1.000000000000000000 ) ) ;
#2 = CARTESIAN_POINT ( 'NONE',  ( 0.000000000000000000, 0.000000000000000000, 250.0000000000000000 ) ) ;
#3 = DIRECTION ( 'NONE',  ( 1.000000000000000000, 0.000000000000000000, 0.000000000000000000 ) ) ;
#4 = FACE_OUTER_BOUND ( 'NONE', #73, .T. ) ;
#5 = APPLICATION_CONTEXT ( 'configuration controlled 3d designs of mechanical parts and assemblies' ) ;
#6 = EDGE_CURVE ( 'NONE', #174, #167, #244, .T. ) ;
#7 = PERSON_AND_ORGANIZATION ( #155, #77 ) ;
#8 =( LENGTH_UNIT ( ) NAMED_UNIT ( * ) SI_UNIT ( .MILLI., .METRE. ) );
#9 = MANIFOLD_SOLID_BREP ( 'Pøidat vysunutím3', #83 ) ;
#10 = PERSON_AND_ORGANIZATION ( #155, #77 ) ;
#11 = CALENDAR_DATE ( 2023, 13, 2 ) ;
#12 = ADVANCED_FACE ( 'NONE', ( #4 ), #212, .T. ) ;
#13 = COORDINATED_UNIVERSAL_TIME_OFFSET ( 1, 0, .AHEAD. ) ;
#14 = ORIENTED_EDGE ( 'NONE', *, *, #76, .T. ) ;
#15 = ORIENTED_EDGE ( 'NONE', *, *, #199, .F. ) ;
#16 = APPROVAL_PERSON_ORGANIZATION ( #132, #129, #38 ) ;
#17 = PERSON_AND_ORGANIZATION ( #155, #77 ) ;
#18 = SECURITY_CLASSIFICATION_LEVEL ( 'unclassified' ) ;
#19 = ORIENTED_EDGE ( 'NONE', *, *, #199, .T. ) ;
#20 = PRODUCT_RELATED_PRODUCT_CATEGORY ( 'detail', '', ( #223 ) ) ;
#21 = DIRECTION ( 'NONE',  ( 1.000000000000000000, 0.000000000000000000, 0.000000000000000000 ) ) ;
#22 = LOCAL_TIME ( 10, 41, 27.00000000000000000, #47 ) ;
#23 = CARTESIAN_POINT ( 'NONE',  ( 0.000000000000000000, 0.000000000000000000, 7.000000000000000000 ) ) ;
#24 = DIRECTION ( 'NONE',  ( 1.000000000000000000, 0.000000000000000000, 0.000000000000000000 ) ) ;
#25 = PLANE ( 'NONE',  #241 ) ;
#26 = DIRECTION ( 'NONE',  ( 1.000000000000000000, 0.000000000000000000, -0.000000000000000000 ) ) ;
#27 = MECHANICAL_CONTEXT ( 'NONE', #5, 'mechanical' ) ;
#28 = AXIS2_PLACEMENT_3D ( 'NONE', #201, #198, #197 ) ;
#29 = CARTESIAN_POINT ( 'NONE',  ( -13.00000000000000178, 0.000000000000000000, 7.000000000000000000 ) ) ;
#30 = CC_DESIGN_PERSON_AND_ORGANIZATION_ASSIGNMENT ( #17, #166, ( #151 ) ) ;
#31 =( NAMED_UNIT ( * ) PLANE_ANGLE_UNIT ( ) SI_UNIT ( $, .RADIAN. ) );
#32 = APPROVAL_DATE_TIME ( #203, #58 ) ;
#33 = SHAPE_DEFINITION_REPRESENTATION ( #230, #228 ) ;
#34 = CIRCLE ( 'NONE', #28, 9.000000000000000000 ) ;
#35 = APPLICATION_CONTEXT ( 'configuration controlled 3d designs of mechanical parts and assemblies' ) ;
#36 = DATE_AND_TIME ( #205, #248 ) ;
#37 = ORIENTED_EDGE ( 'NONE', *, *, #215, .T. ) ;
#38 = APPROVAL_ROLE ( '' ) ;
#39 = EDGE_LOOP ( 'NONE', ( #179, #148 ) ) ;
#40 = CARTESIAN_POINT ( 'NONE',  ( -13.00000000000000178, 0.000000000000000000, 0.000000000000000000 ) ) ;
#41 = VECTOR ( 'NONE', #135, 1000.000000000000000 ) ;
#42 = CARTESIAN_POINT ( 'NONE',  ( 13.00000000000000178, 1.592040838891559293E-15, 0.000000000000000000 ) ) ;
#43 = CARTESIAN_POINT ( 'NONE',  ( 0.000000000000000000, 0.000000000000000000, 7.000000000000000000 ) ) ;
#44 = UNCERTAINTY_MEASURE_WITH_UNIT (LENGTH_MEASURE( 1.000000000000000082E-05 ), #8, 'distance_accuracy_value', 'NONE');
#45 = CARTESIAN_POINT ( 'NONE',  ( 0.000000000000000000, 0.000000000000000000, 0.000000000000000000 ) ) ;
#46 = DIRECTION ( 'NONE',  ( 1.000000000000000000, 0.000000000000000000, -0.000000000000000000 ) ) ;
#47 = COORDINATED_UNIVERSAL_TIME_OFFSET ( 1, 0, .AHEAD. ) ;
#48 = PRODUCT_DEFINITION ( 'NEZNÁMÝ', '', #151, #216 ) ;
#49 = APPLICATION_PROTOCOL_DEFINITION ( 'international standard', 'config_control_design', 1994, #35 ) ;
#50 = CYLINDRICAL_SURFACE ( 'NONE', #139, 9.000000000000000000 ) ;
#51 = CALENDAR_DATE ( 2023, 13, 2 ) ;
#52 = AXIS2_PLACEMENT_3D ( 'NONE', #2, #170, #118 ) ;
#53 =( GEOMETRIC_REPRESENTATION_CONTEXT ( 3 ) GLOBAL_UNCERTAINTY_ASSIGNED_CONTEXT ( ( #44 ) ) GLOBAL_UNIT_ASSIGNED_CONTEXT ( ( #8, #31, #181 ) ) REPRESENTATION_CONTEXT ( 'NONE', 'WORKASPACE' ) );
#54 = EDGE_CURVE ( 'NONE', #152, #189, #156, .T. ) ;
#55 = EDGE_LOOP ( 'NONE', ( #172, #37, #75, #96 ) ) ;
#56 = EDGE_LOOP ( 'NONE', ( #184, #110, #227, #90 ) ) ;
#57 = DIRECTION ( 'NONE',  ( 1.000000000000000000, 0.000000000000000000, 0.000000000000000000 ) ) ;
#58 = APPROVAL ( #102, 'NEURÈENÝ' ) ;
#59 = AXIS2_PLACEMENT_3D ( 'NONE', #80, #114, #57 ) ;
#60 = ORIENTED_EDGE ( 'NONE', *, *, #134, .T. ) ;
#61 = AXIS2_PLACEMENT_3D ( 'NONE', #103, #163, #242 ) ;
#62 = CARTESIAN_POINT ( 'NONE',  ( 0.000000000000000000, 0.000000000000000000, 7.000000000000000000 ) ) ;
#63 = ORIENTED_EDGE ( 'NONE', *, *, #168, .T. ) ;
#64 = EDGE_CURVE ( 'NONE', #101, #189, #65, .T. ) ;
#65 = CIRCLE ( 'NONE', #150, 9.000000000000000000 ) ;
#66 = DIRECTION ( 'NONE',  ( -1.000000000000000000, 0.000000000000000000, 0.000000000000000000 ) ) ;
#67 = CARTESIAN_POINT ( 'NONE',  ( 0.000000000000000000, 0.000000000000000000, 0.000000000000000000 ) ) ;
#68 = ADVANCED_FACE ( 'NONE', ( #190 ), #154, .T. ) ;
#69 = CC_DESIGN_APPROVAL ( #187, ( #127 ) ) ;
#70 = PERSON_AND_ORGANIZATION ( #155, #77 ) ;
#71 = EDGE_CURVE ( 'NONE', #233, #101, #239, .T. ) ;
#72 = DATE_AND_TIME ( #51, #122 ) ;
#73 = EDGE_LOOP ( 'NONE', ( #213, #60 ) ) ;
#74 = CALENDAR_DATE ( 2023, 13, 2 ) ;
#75 = ORIENTED_EDGE ( 'NONE', *, *, #6, .T. ) ;
#76 = EDGE_CURVE ( 'NONE', #209, #167, #78, .T. ) ;
#77 = ORGANIZATION ( 'NEURÈENÝ', 'NEURÈENÝ', '' ) ;
#78 = LINE ( 'NONE', #195, #137 ) ;
#79 = DIRECTION ( 'NONE',  ( -0.000000000000000000, -0.000000000000000000, -1.000000000000000000 ) ) ;
#80 = CARTESIAN_POINT ( 'NONE',  ( 0.000000000000000000, 0.000000000000000000, 7.000000000000000000 ) ) ;
#81 = VERTEX_POINT ( 'NONE', #234 ) ;
#82 = CARTESIAN_POINT ( 'NONE',  ( 0.000000000000000000, 0.000000000000000000, 7.000000000000000000 ) ) ;
#83 = CLOSED_SHELL ( 'NONE', ( #238, #176, #68, #104, #247, #221, #12 ) ) ;
#84 = FACE_OUTER_BOUND ( 'NONE', #56, .T. ) ;
#85 = LINE ( 'NONE', #145, #253 ) ;
#86 = PERSON_AND_ORGANIZATION ( #155, #77 ) ;
#87 = CC_DESIGN_PERSON_AND_ORGANIZATION_ASSIGNMENT ( #7, #222, ( #223 ) ) ;
#88 = ORIENTED_EDGE ( 'NONE', *, *, #168, .F. ) ;
#89 = PERSON_AND_ORGANIZATION ( #155, #77 ) ;
#90 = ORIENTED_EDGE ( 'NONE', *, *, #54, .F. ) ;
#91 = DATE_TIME_ROLE ( 'classification_date' ) ;
#92 = AXIS2_PLACEMENT_3D ( 'NONE', #45, #111, #21 ) ;
#93 = EDGE_LOOP ( 'NONE', ( #153, #251, #14, #63 ) ) ;
#94 = DIRECTION ( 'NONE',  ( -0.000000000000000000, -0.000000000000000000, -1.000000000000000000 ) ) ;
#95 = DIRECTION ( 'NONE',  ( 0.000000000000000000, 0.000000000000000000, 1.000000000000000000 ) ) ;
#96 = ORIENTED_EDGE ( 'NONE', *, *, #76, .F. ) ;
#97 = AXIS2_PLACEMENT_3D ( 'NONE', #202, #123, #225 ) ;
#98 = DIRECTION ( 'NONE',  ( 1.000000000000000000, 0.000000000000000000, 0.000000000000000000 ) ) ;
#99 = CARTESIAN_POINT ( 'NONE',  ( 0.000000000000000000, 0.000000000000000000, 250.0000000000000000 ) ) ;
#100 = CC_DESIGN_APPROVAL ( #58, ( #48 ) ) ;
#101 = VERTEX_POINT ( 'NONE', #138 ) ;
#102 = APPROVAL_STATUS ( 'not_yet_approved' ) ;
#103 = CARTESIAN_POINT ( 'NONE',  ( 0.000000000000000000, 0.000000000000000000, 250.0000000000000000 ) ) ;
#104 = ADVANCED_FACE ( 'NONE', ( #141, #217 ), #25, .T. ) ;
#105 = CC_DESIGN_PERSON_AND_ORGANIZATION_ASSIGNMENT ( #89, #249, ( #127 ) ) ;
#106 = APPROVAL_DATE_TIME ( #36, #129 ) ;
#107 = AXIS2_PLACEMENT_3D ( 'NONE', #240, #237, #46 ) ;
#108 = EDGE_LOOP ( 'NONE', ( #131, #252, #149, #19 ) ) ;
#109 = PERSON_AND_ORGANIZATION ( #155, #77 ) ;
#110 = ORIENTED_EDGE ( 'NONE', *, *, #71, .T. ) ;
#111 = DIRECTION ( 'NONE',  ( 0.000000000000000000, 0.000000000000000000, 1.000000000000000000 ) ) ;
#112 = EDGE_CURVE ( 'NONE', #152, #233, #160, .T. ) ;
#113 = FACE_OUTER_BOUND ( 'NONE', #55, .T. ) ;
#114 = DIRECTION ( 'NONE',  ( 0.000000000000000000, 0.000000000000000000, 1.000000000000000000 ) ) ;
#115 = CC_DESIGN_DATE_AND_TIME_ASSIGNMENT ( #232, #91, ( #127 ) ) ;
#116 = CARTESIAN_POINT ( 'NONE',  ( 0.000000000000000000, 0.000000000000000000, 7.000000000000000000 ) ) ;
#117 = AXIS2_PLACEMENT_3D ( 'NONE', #140, #95, #3 ) ;
#118 = DIRECTION ( 'NONE',  ( 1.000000000000000000, 0.000000000000000000, 0.000000000000000000 ) ) ;
#119 = CARTESIAN_POINT ( 'NONE',  ( 9.000000000000000000, 1.102182119232617714E-15, 250.0000000000000000 ) ) ;
#120 = APPLICATION_PROTOCOL_DEFINITION ( 'international standard', 'config_control_design', 1994, #5 ) ;
#121 = FACE_OUTER_BOUND ( 'NONE', #250, .T. ) ;
#122 = LOCAL_TIME ( 10, 41, 27.00000000000000000, #13 ) ;
#123 = DIRECTION ( 'NONE',  ( 0.000000000000000000, 0.000000000000000000, 1.000000000000000000 ) ) ;
#124 = EDGE_CURVE ( 'NONE', #209, #81, #165, .T. ) ;
#125 = COORDINATED_UNIVERSAL_TIME_OFFSET ( 1, 0, .AHEAD. ) ;
#126 = APPROVAL_DATE_TIME ( #72, #187 ) ;
#127 = SECURITY_CLASSIFICATION ( '', '', #18 ) ;
#128 = ORIENTED_EDGE ( 'NONE', *, *, #64, .F. ) ;
#129 = APPROVAL ( #130, 'NEURÈENÝ' ) ;
#130 = APPROVAL_STATUS ( 'not_yet_approved' ) ;
#131 = ORIENTED_EDGE ( 'NONE', *, *, #71, .F. ) ;
#132 = PERSON_AND_ORGANIZATION ( #155, #77 ) ;
#133 = LOCAL_TIME ( 10, 41, 27.00000000000000000, #125 ) ;
#134 = EDGE_CURVE ( 'NONE', #233, #152, #191, .T. ) ;
#135 = DIRECTION ( 'NONE',  ( -0.000000000000000000, -0.000000000000000000, -1.000000000000000000 ) ) ;
#136 = CARTESIAN_POINT ( 'NONE',  ( -9.000000000000000000, 0.000000000000000000, 250.0000000000000000 ) ) ;
#137 = VECTOR ( 'NONE', #175, 1000.000000000000000 ) ;
#138 = CARTESIAN_POINT ( 'NONE',  ( 9.000000000000000000, 1.102182119232617714E-15, 7.000000000000000000 ) ) ;
#139 = AXIS2_PLACEMENT_3D ( 'NONE', #99, #177, #66 ) ;
#140 = CARTESIAN_POINT ( 'NONE',  ( 0.000000000000000000, 0.000000000000000000, 0.000000000000000000 ) ) ;
#141 = FACE_BOUND ( 'NONE', #231, .T. ) ;
#142 = DIRECTION ( 'NONE',  ( -0.000000000000000000, -0.000000000000000000, -1.000000000000000000 ) ) ;
#143 = DIRECTION ( 'NONE',  ( -1.000000000000000000, 0.000000000000000000, 0.000000000000000000 ) ) ;
#144 = CYLINDRICAL_SURFACE ( 'NONE', #61, 9.000000000000000000 ) ;
#145 = CARTESIAN_POINT ( 'NONE',  ( 13.00000000000000178, 1.592040838891559293E-15, 7.000000000000000000 ) ) ;
#146 = APPROVAL_STATUS ( 'not_yet_approved' ) ;
#147 = LOCAL_TIME ( 10, 41, 27.00000000000000000, #183 ) ;
#148 = ORIENTED_EDGE ( 'NONE', *, *, #162, .T. ) ;
#149 = ORIENTED_EDGE ( 'NONE', *, *, #54, .T. ) ;
#150 = AXIS2_PLACEMENT_3D ( 'NONE', #82, #1, #235 ) ;
#151 = PRODUCT_DEFINITION_FORMATION_WITH_SPECIFIED_SOURCE ( 'LIBOVOLNÝ', '', #223, .NOT_KNOWN. ) ;
#152 = VERTEX_POINT ( 'NONE', #136 ) ;
#153 = ORIENTED_EDGE ( 'NONE', *, *, #215, .F. ) ;
#154 = CYLINDRICAL_SURFACE ( 'NONE', #204, 13.00000000000000178 ) ;
#155 = PERSON ( 'NEURÈENÝ', 'NEURÈENÝ', 'NEURÈENÝ', ('NEURÈENÝ'), ('NEURÈENÝ'), ('NEURÈENÝ') ) ;
#156 = LINE ( 'NONE', #173, #41 ) ;
#157 = APPROVAL_PERSON_ORGANIZATION ( #70, #187, #226 ) ;
#158 = CARTESIAN_POINT ( 'NONE',  ( 9.000000000000000000, 1.102182119232617714E-15, 250.0000000000000000 ) ) ;
#159 = CARTESIAN_POINT ( 'NONE',  ( 0.000000000000000000, 0.000000000000000000, 250.0000000000000000 ) ) ;
#160 = CIRCLE ( 'NONE', #52, 9.000000000000000000 ) ;
#161 = DIRECTION ( 'NONE',  ( 1.000000000000000000, 0.000000000000000000, 0.000000000000000000 ) ) ;
#162 = EDGE_CURVE ( 'NONE', #81, #209, #185, .T. ) ;
#163 = DIRECTION ( 'NONE',  ( -0.000000000000000000, -0.000000000000000000, -1.000000000000000000 ) ) ;
#164 = PERSON_AND_ORGANIZATION_ROLE ( 'creator' ) ;
#165 = CIRCLE ( 'NONE', #59, 13.00000000000000178 ) ;
#166 = PERSON_AND_ORGANIZATION_ROLE ( 'creator' ) ;
#167 = VERTEX_POINT ( 'NONE', #40 ) ;
#168 = EDGE_CURVE ( 'NONE', #167, #174, #169, .T. ) ;
#169 = CIRCLE ( 'NONE', #92, 13.00000000000000178 ) ;
#170 = DIRECTION ( 'NONE',  ( 0.000000000000000000, 0.000000000000000000, 1.000000000000000000 ) ) ;
#171 = CC_DESIGN_DATE_AND_TIME_ASSIGNMENT ( #208, #246, ( #48 ) ) ;
#172 = ORIENTED_EDGE ( 'NONE', *, *, #162, .F. ) ;
#173 = CARTESIAN_POINT ( 'NONE',  ( -9.000000000000000000, 0.000000000000000000, 250.0000000000000000 ) ) ;
#174 = VERTEX_POINT ( 'NONE', #42 ) ;
#175 = DIRECTION ( 'NONE',  ( -0.000000000000000000, -0.000000000000000000, -1.000000000000000000 ) ) ;
#176 = ADVANCED_FACE ( 'NONE', ( #113 ), #192, .T. ) ;
#177 = DIRECTION ( 'NONE',  ( -0.000000000000000000, -0.000000000000000000, -1.000000000000000000 ) ) ;
#178 = CARTESIAN_POINT ( 'NONE',  ( -9.000000000000000000, 0.000000000000000000, 7.000000000000000000 ) ) ;
#179 = ORIENTED_EDGE ( 'NONE', *, *, #124, .T. ) ;
#180 = APPROVAL_ROLE ( '' ) ;
#181 =( NAMED_UNIT ( * ) SI_UNIT ( $, .STERADIAN. ) SOLID_ANGLE_UNIT ( ) );
#182 = CC_DESIGN_SECURITY_CLASSIFICATION ( #127, ( #151 ) ) ;
#183 = COORDINATED_UNIVERSAL_TIME_OFFSET ( 1, 0, .AHEAD. ) ;
#184 = ORIENTED_EDGE ( 'NONE', *, *, #134, .F. ) ;
#185 = CIRCLE ( 'NONE', #224, 13.00000000000000178 ) ;
#186 = CALENDAR_DATE ( 2023, 13, 2 ) ;
#187 = APPROVAL ( #146, 'NEURÈENÝ' ) ;
#188 = PERSON_AND_ORGANIZATION_ROLE ( 'design_supplier' ) ;
#189 = VERTEX_POINT ( 'NONE', #178 ) ;
#190 = FACE_OUTER_BOUND ( 'NONE', #93, .T. ) ;
#191 = CIRCLE ( 'NONE', #200, 9.000000000000000000 ) ;
#192 = CYLINDRICAL_SURFACE ( 'NONE', #196, 13.00000000000000178 ) ;
#193 = DIRECTION ( 'NONE',  ( 0.000000000000000000, 0.000000000000000000, 1.000000000000000000 ) ) ;
#194 = DIRECTION ( 'NONE',  ( -0.000000000000000000, -0.000000000000000000, -1.000000000000000000 ) ) ;
#195 = CARTESIAN_POINT ( 'NONE',  ( -13.00000000000000178, 0.000000000000000000, 7.000000000000000000 ) ) ;
#196 = AXIS2_PLACEMENT_3D ( 'NONE', #23, #94, #143 ) ;
#197 = DIRECTION ( 'NONE',  ( 1.000000000000000000, 0.000000000000000000, 0.000000000000000000 ) ) ;
#198 = DIRECTION ( 'NONE',  ( 0.000000000000000000, 0.000000000000000000, 1.000000000000000000 ) ) ;
#199 = EDGE_CURVE ( 'NONE', #189, #101, #34, .T. ) ;
#200 = AXIS2_PLACEMENT_3D ( 'NONE', #159, #193, #98 ) ;
#201 = CARTESIAN_POINT ( 'NONE',  ( 0.000000000000000000, 0.000000000000000000, 7.000000000000000000 ) ) ;
#202 = CARTESIAN_POINT ( 'NONE',  ( 0.000000000000000000, 0.000000000000000000, 0.000000000000000000 ) ) ;
#203 = DATE_AND_TIME ( #11, #133 ) ;
#204 = AXIS2_PLACEMENT_3D ( 'NONE', #116, #79, #255 ) ;
#205 = CALENDAR_DATE ( 2023, 13, 2 ) ;
#206 = CC_DESIGN_PERSON_AND_ORGANIZATION_ASSIGNMENT ( #109, #188, ( #151 ) ) ;
#207 = COORDINATED_UNIVERSAL_TIME_OFFSET ( 1, 0, .AHEAD. ) ;
#208 = DATE_AND_TIME ( #186, #22 ) ;
#209 = VERTEX_POINT ( 'NONE', #29 ) ;
#210 = ORIENTED_EDGE ( 'NONE', *, *, #6, .F. ) ;
#211 = DIRECTION ( 'NONE',  ( 0.000000000000000000, 0.000000000000000000, 1.000000000000000000 ) ) ;
#212 = PLANE ( 'NONE',  #107 ) ;
#213 = ORIENTED_EDGE ( 'NONE', *, *, #112, .T. ) ;
#214 = DIRECTION ( 'NONE',  ( 0.000000000000000000, 0.000000000000000000, 1.000000000000000000 ) ) ;
#215 = EDGE_CURVE ( 'NONE', #81, #174, #85, .T. ) ;
#216 = DESIGN_CONTEXT ( 'detailed design', #35, 'design' ) ;
#217 = FACE_OUTER_BOUND ( 'NONE', #39, .T. ) ;
#218 = VECTOR ( 'NONE', #194, 1000.000000000000000 ) ;
#219 = AXIS2_PLACEMENT_3D ( 'NONE', #67, #243, #161 ) ;
#220 = FACE_OUTER_BOUND ( 'NONE', #108, .T. ) ;
#221 = ADVANCED_FACE ( 'NONE', ( #220 ), #144, .T. ) ;
#222 = PERSON_AND_ORGANIZATION_ROLE ( 'design_owner' ) ;
#223 = PRODUCT ( 'bc18', 'bc18', '', ( #27 ) ) ;
#224 = AXIS2_PLACEMENT_3D ( 'NONE', #62, #211, #24 ) ;
#225 = DIRECTION ( 'NONE',  ( 1.000000000000000000, 0.000000000000000000, -0.000000000000000000 ) ) ;
#226 = APPROVAL_ROLE ( '' ) ;
#227 = ORIENTED_EDGE ( 'NONE', *, *, #64, .T. ) ;
#228 = ADVANCED_BREP_SHAPE_REPRESENTATION ( 'bc18', ( #9, #219 ), #53 ) ;
#229 = APPROVAL_PERSON_ORGANIZATION ( #10, #58, #180 ) ;
#230 = PRODUCT_DEFINITION_SHAPE ( 'NONE', 'NONE',  #48 ) ;
#231 = EDGE_LOOP ( 'NONE', ( #15, #128 ) ) ;
#232 = DATE_AND_TIME ( #74, #147 ) ;
#233 = VERTEX_POINT ( 'NONE', #119 ) ;
#234 = CARTESIAN_POINT ( 'NONE',  ( 13.00000000000000178, 1.592040838891559293E-15, 7.000000000000000000 ) ) ;
#235 = DIRECTION ( 'NONE',  ( 1.000000000000000000, 0.000000000000000000, 0.000000000000000000 ) ) ;
#236 = CC_DESIGN_APPROVAL ( #129, ( #151 ) ) ;
#237 = DIRECTION ( 'NONE',  ( 0.000000000000000000, 0.000000000000000000, 1.000000000000000000 ) ) ;
#238 = ADVANCED_FACE ( 'NONE', ( #84 ), #50, .T. ) ;
#239 = LINE ( 'NONE', #158, #218 ) ;
#240 = CARTESIAN_POINT ( 'NONE',  ( 0.000000000000000000, 0.000000000000000000, 250.0000000000000000 ) ) ;
#241 = AXIS2_PLACEMENT_3D ( 'NONE', #43, #214, #26 ) ;
#242 = DIRECTION ( 'NONE',  ( -1.000000000000000000, 0.000000000000000000, 0.000000000000000000 ) ) ;
#243 = DIRECTION ( 'NONE',  ( 0.000000000000000000, 0.000000000000000000, 1.000000000000000000 ) ) ;
#244 = CIRCLE ( 'NONE', #117, 13.00000000000000178 ) ;
#245 = PLANE ( 'NONE',  #97 ) ;
#246 = DATE_TIME_ROLE ( 'creation_date' ) ;
#247 = ADVANCED_FACE ( 'NONE', ( #121 ), #245, .F. ) ;
#248 = LOCAL_TIME ( 10, 41, 27.00000000000000000, #207 ) ;
#249 = PERSON_AND_ORGANIZATION_ROLE ( 'classification_officer' ) ;
#250 = EDGE_LOOP ( 'NONE', ( #88, #210 ) ) ;
#251 = ORIENTED_EDGE ( 'NONE', *, *, #124, .F. ) ;
#252 = ORIENTED_EDGE ( 'NONE', *, *, #112, .F. ) ;
#253 = VECTOR ( 'NONE', #142, 1000.000000000000000 ) ;
#254 = CC_DESIGN_PERSON_AND_ORGANIZATION_ASSIGNMENT ( #86, #164, ( #48 ) ) ;
#255 = DIRECTION ( 'NONE',  ( -1.000000000000000000, 0.000000000000000000, 0.000000000000000000 ) ) ;
ENDSEC;
END-ISO-10303-21;
