ISO-10303-21;
HEADER;
FILE_DESCRIPTION (( 'STEP AP203' ),
    '1' );
FILE_NAME ('ed54.STEP',
    '2023-02-13T16:02:47',
    ( '' ),
    ( '' ),
    'SwSTEP 2.0',
    'SolidWorks 2019',
    '' );
FILE_SCHEMA (( 'CONFIG_CONTROL_DESIGN' ));
ENDSEC;

DATA;
#1 = APPLICATION_CONTEXT ( 'configuration controlled 3d designs of mechanical parts and assemblies' ) ;
#2 = CARTESIAN_POINT ( 'NONE',  ( 0.000000000000000000, 0.000000000000000000, 0.000000000000000000 ) ) ;
#3 = CARTESIAN_POINT ( 'NONE',  ( 0.000000000000000000, 0.000000000000000000, 0.000000000000000000 ) ) ;
#4 = CARTESIAN_POINT ( 'NONE',  ( 0.000000000000000000, 0.000000000000000000, 800.0000000000000000 ) ) ;
#5 = CALENDAR_DATE ( 2023, 13, 2 ) ;
#6 = ORIENTED_EDGE ( 'NONE', *, *, #19, .F. ) ;
#7 = DIRECTION ( 'NONE',  ( -0.000000000000000000, -0.000000000000000000, -1.000000000000000000 ) ) ;
#8 = DIRECTION ( 'NONE',  ( 1.000000000000000000, 0.000000000000000000, 0.000000000000000000 ) ) ;
#9 = CARTESIAN_POINT ( 'NONE',  ( -2.600000000000000089, 0.000000000000000000, 800.0000000000000000 ) ) ;
#10 = CARTESIAN_POINT ( 'NONE',  ( 2.600000000000000089, 3.184081677783118191E-16, 5.000000000000000000 ) ) ;
#11 = SECURITY_CLASSIFICATION_LEVEL ( 'unclassified' ) ;
#12 = ORIENTED_EDGE ( 'NONE', *, *, #132, .T. ) ;
#13 = DIRECTION ( 'NONE',  ( 0.000000000000000000, 0.000000000000000000, 1.000000000000000000 ) ) ;
#14 = ORIENTED_EDGE ( 'NONE', *, *, #210, .F. ) ;
#15 = PERSON_AND_ORGANIZATION ( #92, #189 ) ;
#16 = DATE_AND_TIME ( #250, #115 ) ;
#17 = ORIENTED_EDGE ( 'NONE', *, *, #58, .T. ) ;
#18 = VECTOR ( 'NONE', #168, 1000.000000000000000 ) ;
#19 = EDGE_CURVE ( 'NONE', #187, #35, #243, .T. ) ;
#20 = VECTOR ( 'NONE', #56, 1000.000000000000000 ) ;
#21 = EDGE_CURVE ( 'NONE', #34, #197, #134, .T. ) ;
#22 = AXIS2_PLACEMENT_3D ( 'NONE', #190, #203, #87 ) ;
#23 = AXIS2_PLACEMENT_3D ( 'NONE', #130, #150, #200 ) ;
#24 = CARTESIAN_POINT ( 'NONE',  ( 0.000000000000000000, 0.000000000000000000, 5.000000000000000000 ) ) ;
#25 = APPROVAL_DATE_TIME ( #51, #231 ) ;
#26 = CC_DESIGN_PERSON_AND_ORGANIZATION_ASSIGNMENT ( #196, #101, ( #235 ) ) ;
#27 = CARTESIAN_POINT ( 'NONE',  ( -2.600000000000000089, 0.000000000000000000, 5.000000000000000000 ) ) ;
#28 = EDGE_LOOP ( 'NONE', ( #14, #64, #121, #98 ) ) ;
#29 = DIRECTION ( 'NONE',  ( -0.000000000000000000, -0.000000000000000000, -1.000000000000000000 ) ) ;
#30 = ADVANCED_FACE ( 'NONE', ( #157 ), #66, .T. ) ;
#31 = CARTESIAN_POINT ( 'NONE',  ( 5.000000000000000000, 6.123233995736766282E-16, 5.000000000000000000 ) ) ;
#32 = SECURITY_CLASSIFICATION ( '', '', #11 ) ;
#33 = DIRECTION ( 'NONE',  ( -0.000000000000000000, -0.000000000000000000, -1.000000000000000000 ) ) ;
#34 = VERTEX_POINT ( 'NONE', #31 ) ;
#35 = VERTEX_POINT ( 'NONE', #27 ) ;
#36 = LOCAL_TIME ( 17, 2, 47.00000000000000000, #232 ) ;
#37 = PERSON_AND_ORGANIZATION ( #92, #189 ) ;
#38 = ORIENTED_EDGE ( 'NONE', *, *, #62, .F. ) ;
#39 = COORDINATED_UNIVERSAL_TIME_OFFSET ( 1, 0, .AHEAD. ) ;
#40 = EDGE_CURVE ( 'NONE', #233, #254, #248, .T. ) ;
#41 = CLOSED_SHELL ( 'NONE', ( #136, #237, #46, #106, #199, #145, #30 ) ) ;
#42 = LINE ( 'NONE', #153, #253 ) ;
#43 =( GEOMETRIC_REPRESENTATION_CONTEXT ( 3 ) GLOBAL_UNCERTAINTY_ASSIGNED_CONTEXT ( ( #91 ) ) GLOBAL_UNIT_ASSIGNED_CONTEXT ( ( #238, #48, #177 ) ) REPRESENTATION_CONTEXT ( 'NONE', 'WORKASPACE' ) );
#44 = FACE_BOUND ( 'NONE', #173, .T. ) ;
#45 = DIRECTION ( 'NONE',  ( 0.000000000000000000, 0.000000000000000000, 1.000000000000000000 ) ) ;
#46 = ADVANCED_FACE ( 'NONE', ( #208 ), #116, .T. ) ;
#47 = DIRECTION ( 'NONE',  ( 0.000000000000000000, 0.000000000000000000, 1.000000000000000000 ) ) ;
#48 =( NAMED_UNIT ( * ) PLANE_ANGLE_UNIT ( ) SI_UNIT ( $, .RADIAN. ) );
#49 = DIRECTION ( 'NONE',  ( 0.000000000000000000, 0.000000000000000000, 1.000000000000000000 ) ) ;
#50 = CC_DESIGN_SECURITY_CLASSIFICATION ( #32, ( #235 ) ) ;
#51 = DATE_AND_TIME ( #5, #36 ) ;
#52 = EDGE_LOOP ( 'NONE', ( #17, #99 ) ) ;
#53 = APPROVAL_PERSON_ORGANIZATION ( #220, #231, #159 ) ;
#54 = DATE_AND_TIME ( #161, #133 ) ;
#55 = CC_DESIGN_PERSON_AND_ORGANIZATION_ASSIGNMENT ( #216, #110, ( #114 ) ) ;
#56 = DIRECTION ( 'NONE',  ( -0.000000000000000000, -0.000000000000000000, -1.000000000000000000 ) ) ;
#57 = AXIS2_PLACEMENT_3D ( 'NONE', #188, #7, #166 ) ;
#58 = EDGE_CURVE ( 'NONE', #160, #102, #191, .T. ) ;
#59 = MECHANICAL_CONTEXT ( 'NONE', #1, 'mechanical' ) ;
#60 = ORIENTED_EDGE ( 'NONE', *, *, #62, .T. ) ;
#61 = AXIS2_PLACEMENT_3D ( 'NONE', #139, #206, #8 ) ;
#62 = EDGE_CURVE ( 'NONE', #197, #34, #217, .T. ) ;
#63 = DIRECTION ( 'NONE',  ( 0.000000000000000000, 0.000000000000000000, 1.000000000000000000 ) ) ;
#64 = ORIENTED_EDGE ( 'NONE', *, *, #58, .F. ) ;
#65 = PERSON_AND_ORGANIZATION ( #92, #189 ) ;
#66 = PLANE ( 'NONE',  #186 ) ;
#67 = AXIS2_PLACEMENT_3D ( 'NONE', #218, #49, #167 ) ;
#68 = FACE_OUTER_BOUND ( 'NONE', #28, .T. ) ;
#69 = PERSON_AND_ORGANIZATION ( #92, #189 ) ;
#70 = EDGE_LOOP ( 'NONE', ( #182, #227 ) ) ;
#71 = AXIS2_PLACEMENT_3D ( 'NONE', #89, #47, #239 ) ;
#72 = APPROVAL ( #126, 'NEURÈENÝ' ) ;
#73 = DIRECTION ( 'NONE',  ( 0.000000000000000000, 0.000000000000000000, 1.000000000000000000 ) ) ;
#74 = PLANE ( 'NONE',  #97 ) ;
#75 = DATE_TIME_ROLE ( 'classification_date' ) ;
#76 = EDGE_CURVE ( 'NONE', #34, #233, #42, .T. ) ;
#77 = CC_DESIGN_APPROVAL ( #240, ( #32 ) ) ;
#78 = DATE_AND_TIME ( #178, #142 ) ;
#79 = CC_DESIGN_DATE_AND_TIME_ASSIGNMENT ( #78, #75, ( #32 ) ) ;
#80 = CARTESIAN_POINT ( 'NONE',  ( 5.000000000000000000, 6.123233995736766282E-16, 0.000000000000000000 ) ) ;
#81 = AXIS2_PLACEMENT_3D ( 'NONE', #154, #63, #109 ) ;
#82 = DIRECTION ( 'NONE',  ( 1.000000000000000000, 0.000000000000000000, 0.000000000000000000 ) ) ;
#83 = DIRECTION ( 'NONE',  ( -1.000000000000000000, 0.000000000000000000, 0.000000000000000000 ) ) ;
#84 = DIRECTION ( 'NONE',  ( 0.000000000000000000, 0.000000000000000000, 1.000000000000000000 ) ) ;
#85 = APPROVAL_STATUS ( 'not_yet_approved' ) ;
#86 = PRODUCT_RELATED_PRODUCT_CATEGORY ( 'detail', '', ( #114 ) ) ;
#87 = DIRECTION ( 'NONE',  ( 1.000000000000000000, 0.000000000000000000, -0.000000000000000000 ) ) ;
#88 = DATE_TIME_ROLE ( 'creation_date' ) ;
#89 = CARTESIAN_POINT ( 'NONE',  ( 0.000000000000000000, 0.000000000000000000, 800.0000000000000000 ) ) ;
#90 = EDGE_LOOP ( 'NONE', ( #60, #205 ) ) ;
#91 = UNCERTAINTY_MEASURE_WITH_UNIT (LENGTH_MEASURE( 1.000000000000000082E-05 ), #238, 'distance_accuracy_value', 'NONE');
#92 = PERSON ( 'NEURÈENÝ', 'NEURÈENÝ', 'NEURÈENÝ', ('NEURÈENÝ'), ('NEURÈENÝ'), ('NEURÈENÝ') ) ;
#93 = CARTESIAN_POINT ( 'NONE',  ( 0.000000000000000000, 0.000000000000000000, 800.0000000000000000 ) ) ;
#94 = APPLICATION_PROTOCOL_DEFINITION ( 'international standard', 'config_control_design', 1994, #224 ) ;
#95 = ORIENTED_EDGE ( 'NONE', *, *, #149, .F. ) ;
#96 = CC_DESIGN_DATE_AND_TIME_ASSIGNMENT ( #204, #88, ( #128 ) ) ;
#97 = AXIS2_PLACEMENT_3D ( 'NONE', #213, #13, #148 ) ;
#98 = ORIENTED_EDGE ( 'NONE', *, *, #119, .T. ) ;
#99 = ORIENTED_EDGE ( 'NONE', *, *, #149, .T. ) ;
#100 = ORIENTED_EDGE ( 'NONE', *, *, #156, .F. ) ;
#101 = PERSON_AND_ORGANIZATION_ROLE ( 'creator' ) ;
#102 = VERTEX_POINT ( 'NONE', #138 ) ;
#103 = DIRECTION ( 'NONE',  ( -0.000000000000000000, -0.000000000000000000, -1.000000000000000000 ) ) ;
#104 = AXIS2_PLACEMENT_3D ( 'NONE', #24, #219, #242 ) ;
#105 = CYLINDRICAL_SURFACE ( 'NONE', #23, 5.000000000000000000 ) ;
#106 = ADVANCED_FACE ( 'NONE', ( #44, #241 ), #118, .T. ) ;
#107 = CC_DESIGN_APPROVAL ( #72, ( #235 ) ) ;
#108 = COORDINATED_UNIVERSAL_TIME_OFFSET ( 1, 0, .AHEAD. ) ;
#109 = DIRECTION ( 'NONE',  ( 1.000000000000000000, 0.000000000000000000, 0.000000000000000000 ) ) ;
#110 = PERSON_AND_ORGANIZATION_ROLE ( 'design_owner' ) ;
#111 = CYLINDRICAL_SURFACE ( 'NONE', #57, 2.600000000000000089 ) ;
#112 = DIRECTION ( 'NONE',  ( 0.000000000000000000, 0.000000000000000000, 1.000000000000000000 ) ) ;
#113 = CC_DESIGN_APPROVAL ( #231, ( #128 ) ) ;
#114 = PRODUCT ( 'ed54', 'ed54', '', ( #59 ) ) ;
#115 = LOCAL_TIME ( 17, 2, 47.00000000000000000, #175 ) ;
#116 = CYLINDRICAL_SURFACE ( 'NONE', #124, 5.000000000000000000 ) ;
#117 = AXIS2_PLACEMENT_3D ( 'NONE', #3, #84, #230 ) ;
#118 = PLANE ( 'NONE',  #22 ) ;
#119 = EDGE_CURVE ( 'NONE', #35, #187, #181, .T. ) ;
#120 = PRODUCT_DEFINITION_SHAPE ( 'NONE', 'NONE',  #128 ) ;
#121 = ORIENTED_EDGE ( 'NONE', *, *, #156, .T. ) ;
#122 = CARTESIAN_POINT ( 'NONE',  ( -5.000000000000000000, 0.000000000000000000, 5.000000000000000000 ) ) ;
#123 = LOCAL_TIME ( 17, 2, 47.00000000000000000, #108 ) ;
#124 = AXIS2_PLACEMENT_3D ( 'NONE', #143, #33, #155 ) ;
#125 = PERSON_AND_ORGANIZATION_ROLE ( 'classification_officer' ) ;
#126 = APPROVAL_STATUS ( 'not_yet_approved' ) ;
#127 = APPROVAL_DATE_TIME ( #54, #240 ) ;
#128 = PRODUCT_DEFINITION ( 'NEZNÁMÝ', '', #235, #174 ) ;
#129 = CARTESIAN_POINT ( 'NONE',  ( 2.600000000000000089, 3.184081677783118191E-16, 800.0000000000000000 ) ) ;
#130 = CARTESIAN_POINT ( 'NONE',  ( 0.000000000000000000, 0.000000000000000000, 5.000000000000000000 ) ) ;
#131 = MANIFOLD_SOLID_BREP ( 'Pøidat vysunutím3', #41 ) ;
#132 = EDGE_CURVE ( 'NONE', #197, #254, #192, .T. ) ;
#133 = LOCAL_TIME ( 17, 2, 47.00000000000000000, #39 ) ;
#134 = CIRCLE ( 'NONE', #225, 5.000000000000000000 ) ;
#135 = DIRECTION ( 'NONE',  ( 0.000000000000000000, 0.000000000000000000, 1.000000000000000000 ) ) ;
#136 = ADVANCED_FACE ( 'NONE', ( #228 ), #201, .T. ) ;
#137 = AXIS2_PLACEMENT_3D ( 'NONE', #2, #112, #82 ) ;
#138 = CARTESIAN_POINT ( 'NONE',  ( 2.600000000000000089, 3.184081677783118191E-16, 800.0000000000000000 ) ) ;
#139 = CARTESIAN_POINT ( 'NONE',  ( 0.000000000000000000, 0.000000000000000000, 5.000000000000000000 ) ) ;
#140 = EDGE_LOOP ( 'NONE', ( #95, #170, #194, #100 ) ) ;
#141 = LINE ( 'NONE', #171, #20 ) ;
#142 = LOCAL_TIME ( 17, 2, 47.00000000000000000, #172 ) ;
#143 = CARTESIAN_POINT ( 'NONE',  ( 0.000000000000000000, 0.000000000000000000, 5.000000000000000000 ) ) ;
#144 = APPLICATION_PROTOCOL_DEFINITION ( 'international standard', 'config_control_design', 1994, #1 ) ;
#145 = ADVANCED_FACE ( 'NONE', ( #68 ), #111, .T. ) ;
#146 = SHAPE_DEFINITION_REPRESENTATION ( #120, #152 ) ;
#147 = EDGE_LOOP ( 'NONE', ( #169, #223, #151, #180 ) ) ;
#148 = DIRECTION ( 'NONE',  ( 1.000000000000000000, 0.000000000000000000, -0.000000000000000000 ) ) ;
#149 = EDGE_CURVE ( 'NONE', #102, #160, #215, .T. ) ;
#150 = DIRECTION ( 'NONE',  ( -0.000000000000000000, -0.000000000000000000, -1.000000000000000000 ) ) ;
#151 = ORIENTED_EDGE ( 'NONE', *, *, #40, .T. ) ;
#152 = ADVANCED_BREP_SHAPE_REPRESENTATION ( 'ed54', ( #131, #255 ), #43 ) ;
#153 = CARTESIAN_POINT ( 'NONE',  ( 5.000000000000000000, 6.123233995736766282E-16, 5.000000000000000000 ) ) ;
#154 = CARTESIAN_POINT ( 'NONE',  ( 0.000000000000000000, 0.000000000000000000, 5.000000000000000000 ) ) ;
#155 = DIRECTION ( 'NONE',  ( -1.000000000000000000, 0.000000000000000000, 0.000000000000000000 ) ) ;
#156 = EDGE_CURVE ( 'NONE', #160, #35, #141, .T. ) ;
#157 = FACE_OUTER_BOUND ( 'NONE', #52, .T. ) ;
#158 = FACE_OUTER_BOUND ( 'NONE', #70, .T. ) ;
#159 = APPROVAL_ROLE ( '' ) ;
#160 = VERTEX_POINT ( 'NONE', #9 ) ;
#161 = CALENDAR_DATE ( 2023, 13, 2 ) ;
#162 = LINE ( 'NONE', #129, #221 ) ;
#163 = APPROVAL_PERSON_ORGANIZATION ( #212, #240, #214 ) ;
#164 = FACE_OUTER_BOUND ( 'NONE', #147, .T. ) ;
#165 = CARTESIAN_POINT ( 'NONE',  ( -5.000000000000000000, 0.000000000000000000, 0.000000000000000000 ) ) ;
#166 = DIRECTION ( 'NONE',  ( -1.000000000000000000, 0.000000000000000000, 0.000000000000000000 ) ) ;
#167 = DIRECTION ( 'NONE',  ( 1.000000000000000000, 0.000000000000000000, 0.000000000000000000 ) ) ;
#168 = DIRECTION ( 'NONE',  ( -0.000000000000000000, -0.000000000000000000, -1.000000000000000000 ) ) ;
#169 = ORIENTED_EDGE ( 'NONE', *, *, #21, .F. ) ;
#170 = ORIENTED_EDGE ( 'NONE', *, *, #210, .T. ) ;
#171 = CARTESIAN_POINT ( 'NONE',  ( -2.600000000000000089, 0.000000000000000000, 800.0000000000000000 ) ) ;
#172 = COORDINATED_UNIVERSAL_TIME_OFFSET ( 1, 0, .AHEAD. ) ;
#173 = EDGE_LOOP ( 'NONE', ( #209, #6 ) ) ;
#174 = DESIGN_CONTEXT ( 'detailed design', #224, 'design' ) ;
#175 = COORDINATED_UNIVERSAL_TIME_OFFSET ( 1, 0, .AHEAD. ) ;
#176 = ORIENTED_EDGE ( 'NONE', *, *, #76, .F. ) ;
#177 =( NAMED_UNIT ( * ) SI_UNIT ( $, .STERADIAN. ) SOLID_ANGLE_UNIT ( ) );
#178 = CALENDAR_DATE ( 2023, 13, 2 ) ;
#179 = ORIENTED_EDGE ( 'NONE', *, *, #251, .T. ) ;
#180 = ORIENTED_EDGE ( 'NONE', *, *, #132, .F. ) ;
#181 = CIRCLE ( 'NONE', #61, 2.600000000000000089 ) ;
#182 = ORIENTED_EDGE ( 'NONE', *, *, #251, .F. ) ;
#183 = APPROVAL_PERSON_ORGANIZATION ( #69, #72, #198 ) ;
#184 = CC_DESIGN_PERSON_AND_ORGANIZATION_ASSIGNMENT ( #65, #202, ( #128 ) ) ;
#185 = DIRECTION ( 'NONE',  ( 1.000000000000000000, 0.000000000000000000, 0.000000000000000000 ) ) ;
#186 = AXIS2_PLACEMENT_3D ( 'NONE', #4, #135, #207 ) ;
#187 = VERTEX_POINT ( 'NONE', #10 ) ;
#188 = CARTESIAN_POINT ( 'NONE',  ( 0.000000000000000000, 0.000000000000000000, 800.0000000000000000 ) ) ;
#189 = ORGANIZATION ( 'NEURÈENÝ', 'NEURÈENÝ', '' ) ;
#190 = CARTESIAN_POINT ( 'NONE',  ( 0.000000000000000000, 0.000000000000000000, 5.000000000000000000 ) ) ;
#191 = CIRCLE ( 'NONE', #67, 2.600000000000000089 ) ;
#192 = LINE ( 'NONE', #245, #18 ) ;
#193 = PERSON_AND_ORGANIZATION_ROLE ( 'design_supplier' ) ;
#194 = ORIENTED_EDGE ( 'NONE', *, *, #19, .T. ) ;
#195 = CC_DESIGN_PERSON_AND_ORGANIZATION_ASSIGNMENT ( #15, #193, ( #235 ) ) ;
#196 = PERSON_AND_ORGANIZATION ( #92, #189 ) ;
#197 = VERTEX_POINT ( 'NONE', #122 ) ;
#198 = APPROVAL_ROLE ( '' ) ;
#199 = ADVANCED_FACE ( 'NONE', ( #158 ), #74, .F. ) ;
#200 = DIRECTION ( 'NONE',  ( -1.000000000000000000, 0.000000000000000000, 0.000000000000000000 ) ) ;
#201 = CYLINDRICAL_SURFACE ( 'NONE', #246, 2.600000000000000089 ) ;
#202 = PERSON_AND_ORGANIZATION_ROLE ( 'creator' ) ;
#203 = DIRECTION ( 'NONE',  ( 0.000000000000000000, 0.000000000000000000, 1.000000000000000000 ) ) ;
#204 = DATE_AND_TIME ( #229, #123 ) ;
#205 = ORIENTED_EDGE ( 'NONE', *, *, #21, .T. ) ;
#206 = DIRECTION ( 'NONE',  ( 0.000000000000000000, 0.000000000000000000, 1.000000000000000000 ) ) ;
#207 = DIRECTION ( 'NONE',  ( 1.000000000000000000, 0.000000000000000000, -0.000000000000000000 ) ) ;
#208 = FACE_OUTER_BOUND ( 'NONE', #211, .T. ) ;
#209 = ORIENTED_EDGE ( 'NONE', *, *, #119, .F. ) ;
#210 = EDGE_CURVE ( 'NONE', #102, #187, #162, .T. ) ;
#211 = EDGE_LOOP ( 'NONE', ( #176, #38, #12, #179 ) ) ;
#212 = PERSON_AND_ORGANIZATION ( #92, #189 ) ;
#213 = CARTESIAN_POINT ( 'NONE',  ( 0.000000000000000000, 0.000000000000000000, 0.000000000000000000 ) ) ;
#214 = APPROVAL_ROLE ( '' ) ;
#215 = CIRCLE ( 'NONE', #71, 2.600000000000000089 ) ;
#216 = PERSON_AND_ORGANIZATION ( #92, #189 ) ;
#217 = CIRCLE ( 'NONE', #104, 5.000000000000000000 ) ;
#218 = CARTESIAN_POINT ( 'NONE',  ( 0.000000000000000000, 0.000000000000000000, 800.0000000000000000 ) ) ;
#219 = DIRECTION ( 'NONE',  ( 0.000000000000000000, 0.000000000000000000, 1.000000000000000000 ) ) ;
#220 = PERSON_AND_ORGANIZATION ( #92, #189 ) ;
#221 = VECTOR ( 'NONE', #103, 1000.000000000000000 ) ;
#222 = CC_DESIGN_PERSON_AND_ORGANIZATION_ASSIGNMENT ( #37, #125, ( #32 ) ) ;
#223 = ORIENTED_EDGE ( 'NONE', *, *, #76, .T. ) ;
#224 = APPLICATION_CONTEXT ( 'configuration controlled 3d designs of mechanical parts and assemblies' ) ;
#225 = AXIS2_PLACEMENT_3D ( 'NONE', #226, #45, #185 ) ;
#226 = CARTESIAN_POINT ( 'NONE',  ( 0.000000000000000000, 0.000000000000000000, 5.000000000000000000 ) ) ;
#227 = ORIENTED_EDGE ( 'NONE', *, *, #40, .F. ) ;
#228 = FACE_OUTER_BOUND ( 'NONE', #140, .T. ) ;
#229 = CALENDAR_DATE ( 2023, 13, 2 ) ;
#230 = DIRECTION ( 'NONE',  ( 1.000000000000000000, 0.000000000000000000, 0.000000000000000000 ) ) ;
#231 = APPROVAL ( #85, 'NEURÈENÝ' ) ;
#232 = COORDINATED_UNIVERSAL_TIME_OFFSET ( 1, 0, .AHEAD. ) ;
#233 = VERTEX_POINT ( 'NONE', #80 ) ;
#234 = CIRCLE ( 'NONE', #137, 5.000000000000000000 ) ;
#235 = PRODUCT_DEFINITION_FORMATION_WITH_SPECIFIED_SOURCE ( 'LIBOVOLNÝ', '', #114, .NOT_KNOWN. ) ;
#236 = DIRECTION ( 'NONE',  ( 1.000000000000000000, 0.000000000000000000, 0.000000000000000000 ) ) ;
#237 = ADVANCED_FACE ( 'NONE', ( #164 ), #105, .T. ) ;
#238 =( LENGTH_UNIT ( ) NAMED_UNIT ( * ) SI_UNIT ( .MILLI., .METRE. ) );
#239 = DIRECTION ( 'NONE',  ( 1.000000000000000000, 0.000000000000000000, 0.000000000000000000 ) ) ;
#240 = APPROVAL ( #247, 'NEURÈENÝ' ) ;
#241 = FACE_OUTER_BOUND ( 'NONE', #90, .T. ) ;
#242 = DIRECTION ( 'NONE',  ( 1.000000000000000000, 0.000000000000000000, 0.000000000000000000 ) ) ;
#243 = CIRCLE ( 'NONE', #81, 2.600000000000000089 ) ;
#244 = DIRECTION ( 'NONE',  ( -0.000000000000000000, -0.000000000000000000, -1.000000000000000000 ) ) ;
#245 = CARTESIAN_POINT ( 'NONE',  ( -5.000000000000000000, 0.000000000000000000, 5.000000000000000000 ) ) ;
#246 = AXIS2_PLACEMENT_3D ( 'NONE', #93, #29, #83 ) ;
#247 = APPROVAL_STATUS ( 'not_yet_approved' ) ;
#248 = CIRCLE ( 'NONE', #117, 5.000000000000000000 ) ;
#249 = CARTESIAN_POINT ( 'NONE',  ( 0.000000000000000000, 0.000000000000000000, 0.000000000000000000 ) ) ;
#250 = CALENDAR_DATE ( 2023, 13, 2 ) ;
#251 = EDGE_CURVE ( 'NONE', #254, #233, #234, .T. ) ;
#252 = APPROVAL_DATE_TIME ( #16, #72 ) ;
#253 = VECTOR ( 'NONE', #244, 1000.000000000000000 ) ;
#254 = VERTEX_POINT ( 'NONE', #165 ) ;
#255 = AXIS2_PLACEMENT_3D ( 'NONE', #249, #73, #236 ) ;
ENDSEC;
END-ISO-10303-21;
