ISO-10303-21;
HEADER;
FILE_DESCRIPTION (( 'STEP AP203' ),
    '1' );
FILE_NAME ('9ecf.STEP',
    '2023-02-13T16:01:53',
    ( '' ),
    ( '' ),
    'SwSTEP 2.0',
    'SolidWorks 2019',
    '' );
FILE_SCHEMA (( 'CONFIG_CONTROL_DESIGN' ));
ENDSEC;

DATA;
#1 = CARTESIAN_POINT ( 'NONE',  ( 2.750000000000000000, 3.367778697655221012E-16, 160.0000000000000000 ) ) ;
#2 = DIRECTION ( 'NONE',  ( 1.000000000000000000, 0.000000000000000000, 0.000000000000000000 ) ) ;
#3 = AXIS2_PLACEMENT_3D ( 'NONE', #26, #27, #184 ) ;
#4 = DIRECTION ( 'NONE',  ( 1.000000000000000000, 0.000000000000000000, 0.000000000000000000 ) ) ;
#5 = PRODUCT_DEFINITION_SHAPE ( 'NONE', 'NONE',  #165 ) ;
#6 = DIRECTION ( 'NONE',  ( 1.000000000000000000, 0.000000000000000000, 0.000000000000000000 ) ) ;
#7 = DIRECTION ( 'NONE',  ( -0.000000000000000000, -0.000000000000000000, -1.000000000000000000 ) ) ;
#8 = CIRCLE ( 'NONE', #130, 2.750000000000000000 ) ;
#9 = DIRECTION ( 'NONE',  ( -1.000000000000000000, 0.000000000000000000, 0.000000000000000000 ) ) ;
#10 = PERSON_AND_ORGANIZATION ( #147, #151 ) ;
#11 = ORIENTED_EDGE ( 'NONE', *, *, #61, .F. ) ;
#12 = CC_DESIGN_APPROVAL ( #113, ( #82 ) ) ;
#13 = PERSON_AND_ORGANIZATION_ROLE ( 'design_owner' ) ;
#14 = VERTEX_POINT ( 'NONE', #135 ) ;
#15 = EDGE_CURVE ( 'NONE', #164, #193, #253, .T. ) ;
#16 = DIRECTION ( 'NONE',  ( 1.000000000000000000, 0.000000000000000000, 0.000000000000000000 ) ) ;
#17 = ORIENTED_EDGE ( 'NONE', *, *, #47, .F. ) ;
#18 = DIRECTION ( 'NONE',  ( 1.000000000000000000, 0.000000000000000000, -0.000000000000000000 ) ) ;
#19 = CARTESIAN_POINT ( 'NONE',  ( 0.000000000000000000, 0.000000000000000000, 5.000000000000000000 ) ) ;
#20 = ADVANCED_FACE ( 'NONE', ( #108 ), #197, .F. ) ;
#21 = CARTESIAN_POINT ( 'NONE',  ( 0.000000000000000000, 0.000000000000000000, 5.000000000000000000 ) ) ;
#22 = COORDINATED_UNIVERSAL_TIME_OFFSET ( 1, 0, .AHEAD. ) ;
#23 = CIRCLE ( 'NONE', #167, 2.750000000000000000 ) ;
#24 = EDGE_CURVE ( 'NONE', #102, #14, #112, .T. ) ;
#25 = DIRECTION ( 'NONE',  ( 1.000000000000000000, 0.000000000000000000, 0.000000000000000000 ) ) ;
#26 = CARTESIAN_POINT ( 'NONE',  ( 0.000000000000000000, 0.000000000000000000, 5.000000000000000000 ) ) ;
#27 = DIRECTION ( 'NONE',  ( 0.000000000000000000, 0.000000000000000000, 1.000000000000000000 ) ) ;
#28 = DIRECTION ( 'NONE',  ( 1.000000000000000000, 0.000000000000000000, 0.000000000000000000 ) ) ;
#29 = CARTESIAN_POINT ( 'NONE',  ( 2.750000000000000000, 3.367778697655221012E-16, 160.0000000000000000 ) ) ;
#30 = EDGE_LOOP ( 'NONE', ( #49, #98 ) ) ;
#31 = ORIENTED_EDGE ( 'NONE', *, *, #64, .F. ) ;
#32 = ORIENTED_EDGE ( 'NONE', *, *, #157, .T. ) ;
#33 = EDGE_CURVE ( 'NONE', #193, #81, #8, .T. ) ;
#34 = CARTESIAN_POINT ( 'NONE',  ( -2.750000000000000000, 0.000000000000000000, 5.000000000000000000 ) ) ;
#35 =( GEOMETRIC_REPRESENTATION_CONTEXT ( 3 ) GLOBAL_UNCERTAINTY_ASSIGNED_CONTEXT ( ( #237 ) ) GLOBAL_UNIT_ASSIGNED_CONTEXT ( ( #44, #219, #162 ) ) REPRESENTATION_CONTEXT ( 'NONE', 'WORKASPACE' ) );
#36 = APPROVAL_STATUS ( 'not_yet_approved' ) ;
#37 = CC_DESIGN_PERSON_AND_ORGANIZATION_ASSIGNMENT ( #149, #110, ( #165 ) ) ;
#38 = AXIS2_PLACEMENT_3D ( 'NONE', #123, #223, #244 ) ;
#39 = AXIS2_PLACEMENT_3D ( 'NONE', #73, #58, #6 ) ;
#40 = CALENDAR_DATE ( 2023, 13, 2 ) ;
#41 = CARTESIAN_POINT ( 'NONE',  ( 0.000000000000000000, 0.000000000000000000, 160.0000000000000000 ) ) ;
#42 = DATE_AND_TIME ( #178, #174 ) ;
#43 = PERSON_AND_ORGANIZATION ( #147, #151 ) ;
#44 =( LENGTH_UNIT ( ) NAMED_UNIT ( * ) SI_UNIT ( .MILLI., .METRE. ) );
#45 = APPLICATION_PROTOCOL_DEFINITION ( 'international standard', 'config_control_design', 1994, #128 ) ;
#46 = ORIENTED_EDGE ( 'NONE', *, *, #137, .F. ) ;
#47 = EDGE_CURVE ( 'NONE', #129, #102, #60, .T. ) ;
#48 = APPROVAL_ROLE ( '' ) ;
#49 = ORIENTED_EDGE ( 'NONE', *, *, #137, .T. ) ;
#50 = FACE_OUTER_BOUND ( 'NONE', #173, .T. ) ;
#51 = DIRECTION ( 'NONE',  ( 1.000000000000000000, 0.000000000000000000, 0.000000000000000000 ) ) ;
#52 = CYLINDRICAL_SURFACE ( 'NONE', #150, 5.000000000000000000 ) ;
#53 = DIRECTION ( 'NONE',  ( 0.000000000000000000, 0.000000000000000000, 1.000000000000000000 ) ) ;
#54 = CC_DESIGN_SECURITY_CLASSIFICATION ( #187, ( #82 ) ) ;
#55 = CC_DESIGN_PERSON_AND_ORGANIZATION_ASSIGNMENT ( #152, #132, ( #82 ) ) ;
#56 = COORDINATED_UNIVERSAL_TIME_OFFSET ( 1, 0, .AHEAD. ) ;
#57 = FACE_OUTER_BOUND ( 'NONE', #94, .T. ) ;
#58 = DIRECTION ( 'NONE',  ( 0.000000000000000000, 0.000000000000000000, 1.000000000000000000 ) ) ;
#59 = DIRECTION ( 'NONE',  ( -1.000000000000000000, 0.000000000000000000, 0.000000000000000000 ) ) ;
#60 = CIRCLE ( 'NONE', #185, 5.000000000000000000 ) ;
#61 = EDGE_CURVE ( 'NONE', #81, #193, #23, .T. ) ;
#62 = APPROVAL_PERSON_ORGANIZATION ( #107, #113, #200 ) ;
#63 = COORDINATED_UNIVERSAL_TIME_OFFSET ( 1, 0, .AHEAD. ) ;
#64 = EDGE_CURVE ( 'NONE', #129, #192, #201, .T. ) ;
#65 = ORIENTED_EDGE ( 'NONE', *, *, #15, .T. ) ;
#66 = ADVANCED_FACE ( 'NONE', ( #50 ), #52, .T. ) ;
#67 = APPROVAL_DATE_TIME ( #230, #113 ) ;
#68 = AXIS2_PLACEMENT_3D ( 'NONE', #238, #182, #206 ) ;
#69 = CARTESIAN_POINT ( 'NONE',  ( -2.750000000000000000, 0.000000000000000000, 160.0000000000000000 ) ) ;
#70 = DIRECTION ( 'NONE',  ( 0.000000000000000000, 0.000000000000000000, 1.000000000000000000 ) ) ;
#71 = PERSON_AND_ORGANIZATION_ROLE ( 'classification_officer' ) ;
#72 = DIRECTION ( 'NONE',  ( -0.000000000000000000, -0.000000000000000000, -1.000000000000000000 ) ) ;
#73 = CARTESIAN_POINT ( 'NONE',  ( 0.000000000000000000, 0.000000000000000000, 0.000000000000000000 ) ) ;
#74 = ORIENTED_EDGE ( 'NONE', *, *, #142, .T. ) ;
#75 = CARTESIAN_POINT ( 'NONE',  ( 0.000000000000000000, 0.000000000000000000, 5.000000000000000000 ) ) ;
#76 = ORIENTED_EDGE ( 'NONE', *, *, #64, .T. ) ;
#77 = AXIS2_PLACEMENT_3D ( 'NONE', #145, #249, #16 ) ;
#78 = CALENDAR_DATE ( 2023, 13, 2 ) ;
#79 = ORIENTED_EDGE ( 'NONE', *, *, #24, .T. ) ;
#80 = EDGE_LOOP ( 'NONE', ( #11, #176 ) ) ;
#81 = VERTEX_POINT ( 'NONE', #34 ) ;
#82 = PRODUCT_DEFINITION_FORMATION_WITH_SPECIFIED_SOURCE ( 'LIBOVOLNÝ', '', #140, .NOT_KNOWN. ) ;
#83 = COORDINATED_UNIVERSAL_TIME_OFFSET ( 1, 0, .AHEAD. ) ;
#84 = CARTESIAN_POINT ( 'NONE',  ( 5.000000000000000000, 6.123233995736766282E-16, 5.000000000000000000 ) ) ;
#85 = CALENDAR_DATE ( 2023, 13, 2 ) ;
#86 = CALENDAR_DATE ( 2023, 13, 2 ) ;
#87 = DATE_AND_TIME ( #40, #212 ) ;
#88 = DIRECTION ( 'NONE',  ( 0.000000000000000000, 0.000000000000000000, 1.000000000000000000 ) ) ;
#89 = CARTESIAN_POINT ( 'NONE',  ( 0.000000000000000000, 0.000000000000000000, 160.0000000000000000 ) ) ;
#90 = APPROVAL_PERSON_ORGANIZATION ( #243, #96, #141 ) ;
#91 = CYLINDRICAL_SURFACE ( 'NONE', #111, 2.750000000000000000 ) ;
#92 = EDGE_LOOP ( 'NONE', ( #146, #17, #76, #120 ) ) ;
#93 = CARTESIAN_POINT ( 'NONE',  ( -5.000000000000000000, 0.000000000000000000, 5.000000000000000000 ) ) ;
#94 = EDGE_LOOP ( 'NONE', ( #251, #65, #250, #170 ) ) ;
#95 = SECURITY_CLASSIFICATION_LEVEL ( 'unclassified' ) ;
#96 = APPROVAL ( #121, 'NEURÈENÝ' ) ;
#97 = LINE ( 'NONE', #69, #217 ) ;
#98 = ORIENTED_EDGE ( 'NONE', *, *, #246, .T. ) ;
#99 = MECHANICAL_CONTEXT ( 'NONE', #128, 'mechanical' ) ;
#100 = CC_DESIGN_APPROVAL ( #96, ( #187 ) ) ;
#101 = EDGE_LOOP ( 'NONE', ( #221, #32 ) ) ;
#102 = VERTEX_POINT ( 'NONE', #196 ) ;
#103 = VECTOR ( 'NONE', #254, 1000.000000000000000 ) ;
#104 = AXIS2_PLACEMENT_3D ( 'NONE', #75, #207, #59 ) ;
#105 = ADVANCED_FACE ( 'NONE', ( #131 ), #156, .T. ) ;
#106 = CARTESIAN_POINT ( 'NONE',  ( 0.000000000000000000, 0.000000000000000000, 5.000000000000000000 ) ) ;
#107 = PERSON_AND_ORGANIZATION ( #147, #151 ) ;
#108 = FACE_OUTER_BOUND ( 'NONE', #190, .T. ) ;
#109 = PERSON_AND_ORGANIZATION ( #147, #151 ) ;
#110 = PERSON_AND_ORGANIZATION_ROLE ( 'creator' ) ;
#111 = AXIS2_PLACEMENT_3D ( 'NONE', #240, #245, #122 ) ;
#112 = LINE ( 'NONE', #84, #241 ) ;
#113 = APPROVAL ( #36, 'NEURÈENÝ' ) ;
#114 = CARTESIAN_POINT ( 'NONE',  ( 0.000000000000000000, 0.000000000000000000, 5.000000000000000000 ) ) ;
#115 = PERSON_AND_ORGANIZATION_ROLE ( 'design_supplier' ) ;
#116 = APPROVAL ( #227, 'NEURÈENÝ' ) ;
#117 = LOCAL_TIME ( 17, 1, 53.00000000000000000, #216 ) ;
#118 = SHAPE_DEFINITION_REPRESENTATION ( #5, #194 ) ;
#119 = FACE_OUTER_BOUND ( 'NONE', #101, .T. ) ;
#120 = ORIENTED_EDGE ( 'NONE', *, *, #248, .T. ) ;
#121 = APPROVAL_STATUS ( 'not_yet_approved' ) ;
#122 = DIRECTION ( 'NONE',  ( -1.000000000000000000, 0.000000000000000000, 0.000000000000000000 ) ) ;
#123 = CARTESIAN_POINT ( 'NONE',  ( 0.000000000000000000, 0.000000000000000000, 160.0000000000000000 ) ) ;
#124 = APPLICATION_PROTOCOL_DEFINITION ( 'international standard', 'config_control_design', 1994, #222 ) ;
#125 = DESIGN_CONTEXT ( 'detailed design', #222, 'design' ) ;
#126 = AXIS2_PLACEMENT_3D ( 'NONE', #89, #72, #9 ) ;
#127 = EDGE_CURVE ( 'NONE', #14, #192, #220, .T. ) ;
#128 = APPLICATION_CONTEXT ( 'configuration controlled 3d designs of mechanical parts and assemblies' ) ;
#129 = VERTEX_POINT ( 'NONE', #93 ) ;
#130 = AXIS2_PLACEMENT_3D ( 'NONE', #21, #88, #2 ) ;
#131 = FACE_OUTER_BOUND ( 'NONE', #171, .T. ) ;
#132 = PERSON_AND_ORGANIZATION_ROLE ( 'creator' ) ;
#133 = DIRECTION ( 'NONE',  ( -0.000000000000000000, -0.000000000000000000, -1.000000000000000000 ) ) ;
#134 = DATE_AND_TIME ( #78, #242 ) ;
#135 = CARTESIAN_POINT ( 'NONE',  ( 5.000000000000000000, 6.123233995736766282E-16, 0.000000000000000000 ) ) ;
#136 = FACE_OUTER_BOUND ( 'NONE', #30, .T. ) ;
#137 = EDGE_CURVE ( 'NONE', #210, #164, #199, .T. ) ;
#138 = CARTESIAN_POINT ( 'NONE',  ( 2.750000000000000000, 3.367778697655221012E-16, 5.000000000000000000 ) ) ;
#139 = PLANE ( 'NONE',  #68 ) ;
#140 = PRODUCT ( '9ecf', '9ecf', '', ( #99 ) ) ;
#141 = APPROVAL_ROLE ( '' ) ;
#142 = EDGE_CURVE ( 'NONE', #210, #81, #97, .T. ) ;
#143 = CLOSED_SHELL ( 'NONE', ( #189, #66, #198, #236, #20, #105, #186 ) ) ;
#144 = AXIS2_PLACEMENT_3D ( 'NONE', #41, #70, #28 ) ;
#145 = CARTESIAN_POINT ( 'NONE',  ( 0.000000000000000000, 0.000000000000000000, 0.000000000000000000 ) ) ;
#146 = ORIENTED_EDGE ( 'NONE', *, *, #24, .F. ) ;
#147 = PERSON ( 'NEURÈENÝ', 'NEURÈENÝ', 'NEURÈENÝ', ('NEURÈENÝ'), ('NEURÈENÝ'), ('NEURÈENÝ') ) ;
#148 = ORIENTED_EDGE ( 'NONE', *, *, #127, .F. ) ;
#149 = PERSON_AND_ORGANIZATION ( #147, #151 ) ;
#150 = AXIS2_PLACEMENT_3D ( 'NONE', #106, #133, #215 ) ;
#151 = ORGANIZATION ( 'NEURÈENÝ', 'NEURÈENÝ', '' ) ;
#152 = PERSON_AND_ORGANIZATION ( #147, #151 ) ;
#153 = DIRECTION ( 'NONE',  ( -0.000000000000000000, -0.000000000000000000, -1.000000000000000000 ) ) ;
#154 = CC_DESIGN_DATE_AND_TIME_ASSIGNMENT ( #175, #233, ( #165 ) ) ;
#155 = DIRECTION ( 'NONE',  ( 0.000000000000000000, 0.000000000000000000, 1.000000000000000000 ) ) ;
#156 = CYLINDRICAL_SURFACE ( 'NONE', #126, 2.750000000000000000 ) ;
#157 = EDGE_CURVE ( 'NONE', #102, #129, #163, .T. ) ;
#158 = FACE_OUTER_BOUND ( 'NONE', #92, .T. ) ;
#159 = DIRECTION ( 'NONE',  ( 0.000000000000000000, 0.000000000000000000, 1.000000000000000000 ) ) ;
#160 = AXIS2_PLACEMENT_3D ( 'NONE', #239, #188, #25 ) ;
#161 = DATE_TIME_ROLE ( 'classification_date' ) ;
#162 =( NAMED_UNIT ( * ) SI_UNIT ( $, .STERADIAN. ) SOLID_ANGLE_UNIT ( ) );
#163 = CIRCLE ( 'NONE', #225, 5.000000000000000000 ) ;
#164 = VERTEX_POINT ( 'NONE', #29 ) ;
#165 = PRODUCT_DEFINITION ( 'NEZNÁMÝ', '', #82, #125 ) ;
#166 = FACE_BOUND ( 'NONE', #80, .T. ) ;
#167 = AXIS2_PLACEMENT_3D ( 'NONE', #235, #53, #51 ) ;
#168 = ORIENTED_EDGE ( 'NONE', *, *, #15, .F. ) ;
#169 = APPROVAL_PERSON_ORGANIZATION ( #10, #116, #48 ) ;
#170 = ORIENTED_EDGE ( 'NONE', *, *, #142, .F. ) ;
#171 = EDGE_LOOP ( 'NONE', ( #168, #46, #74, #177 ) ) ;
#172 = PERSON_AND_ORGANIZATION ( #147, #151 ) ;
#173 = EDGE_LOOP ( 'NONE', ( #183, #79, #226, #31 ) ) ;
#174 = LOCAL_TIME ( 17, 1, 53.00000000000000000, #56 ) ;
#175 = DATE_AND_TIME ( #85, #117 ) ;
#176 = ORIENTED_EDGE ( 'NONE', *, *, #33, .F. ) ;
#177 = ORIENTED_EDGE ( 'NONE', *, *, #61, .T. ) ;
#178 = CALENDAR_DATE ( 2023, 13, 2 ) ;
#179 = CARTESIAN_POINT ( 'NONE',  ( -5.000000000000000000, 0.000000000000000000, 5.000000000000000000 ) ) ;
#180 = AXIS2_PLACEMENT_3D ( 'NONE', #231, #232, #18 ) ;
#181 = APPROVAL_DATE_TIME ( #42, #96 ) ;
#182 = DIRECTION ( 'NONE',  ( 0.000000000000000000, 0.000000000000000000, 1.000000000000000000 ) ) ;
#183 = ORIENTED_EDGE ( 'NONE', *, *, #157, .F. ) ;
#184 = DIRECTION ( 'NONE',  ( 1.000000000000000000, 0.000000000000000000, -0.000000000000000000 ) ) ;
#185 = AXIS2_PLACEMENT_3D ( 'NONE', #19, #155, #214 ) ;
#186 = ADVANCED_FACE ( 'NONE', ( #136 ), #139, .T. ) ;
#187 = SECURITY_CLASSIFICATION ( '', '', #95 ) ;
#188 = DIRECTION ( 'NONE',  ( 0.000000000000000000, 0.000000000000000000, 1.000000000000000000 ) ) ;
#189 = ADVANCED_FACE ( 'NONE', ( #57 ), #91, .T. ) ;
#190 = EDGE_LOOP ( 'NONE', ( #229, #148 ) ) ;
#191 = CC_DESIGN_APPROVAL ( #116, ( #165 ) ) ;
#192 = VERTEX_POINT ( 'NONE', #205 ) ;
#193 = VERTEX_POINT ( 'NONE', #138 ) ;
#194 = ADVANCED_BREP_SHAPE_REPRESENTATION ( '9ecf', ( #195, #77 ), #35 ) ;
#195 = MANIFOLD_SOLID_BREP ( 'Pøidat vysunutím3', #143 ) ;
#196 = CARTESIAN_POINT ( 'NONE',  ( 5.000000000000000000, 6.123233995736766282E-16, 5.000000000000000000 ) ) ;
#197 = PLANE ( 'NONE',  #180 ) ;
#198 = ADVANCED_FACE ( 'NONE', ( #158 ), #208, .T. ) ;
#199 = CIRCLE ( 'NONE', #38, 2.750000000000000000 ) ;
#200 = APPROVAL_ROLE ( '' ) ;
#201 = LINE ( 'NONE', #179, #204 ) ;
#202 = CC_DESIGN_PERSON_AND_ORGANIZATION_ASSIGNMENT ( #43, #71, ( #187 ) ) ;
#203 = CARTESIAN_POINT ( 'NONE',  ( -2.750000000000000000, 0.000000000000000000, 160.0000000000000000 ) ) ;
#204 = VECTOR ( 'NONE', #234, 1000.000000000000000 ) ;
#205 = CARTESIAN_POINT ( 'NONE',  ( -5.000000000000000000, 0.000000000000000000, 0.000000000000000000 ) ) ;
#206 = DIRECTION ( 'NONE',  ( 1.000000000000000000, 0.000000000000000000, -0.000000000000000000 ) ) ;
#207 = DIRECTION ( 'NONE',  ( -0.000000000000000000, -0.000000000000000000, -1.000000000000000000 ) ) ;
#208 = CYLINDRICAL_SURFACE ( 'NONE', #104, 5.000000000000000000 ) ;
#209 = CC_DESIGN_PERSON_AND_ORGANIZATION_ASSIGNMENT ( #172, #13, ( #140 ) ) ;
#210 = VERTEX_POINT ( 'NONE', #203 ) ;
#211 = CC_DESIGN_PERSON_AND_ORGANIZATION_ASSIGNMENT ( #109, #115, ( #82 ) ) ;
#212 = LOCAL_TIME ( 17, 1, 53.00000000000000000, #22 ) ;
#213 = CC_DESIGN_DATE_AND_TIME_ASSIGNMENT ( #87, #161, ( #187 ) ) ;
#214 = DIRECTION ( 'NONE',  ( 1.000000000000000000, 0.000000000000000000, 0.000000000000000000 ) ) ;
#215 = DIRECTION ( 'NONE',  ( -1.000000000000000000, 0.000000000000000000, 0.000000000000000000 ) ) ;
#216 = COORDINATED_UNIVERSAL_TIME_OFFSET ( 1, 0, .AHEAD. ) ;
#217 = VECTOR ( 'NONE', #7, 1000.000000000000000 ) ;
#218 = PLANE ( 'NONE',  #3 ) ;
#219 =( NAMED_UNIT ( * ) PLANE_ANGLE_UNIT ( ) SI_UNIT ( $, .RADIAN. ) );
#220 = CIRCLE ( 'NONE', #160, 5.000000000000000000 ) ;
#221 = ORIENTED_EDGE ( 'NONE', *, *, #47, .T. ) ;
#222 = APPLICATION_CONTEXT ( 'configuration controlled 3d designs of mechanical parts and assemblies' ) ;
#223 = DIRECTION ( 'NONE',  ( 0.000000000000000000, 0.000000000000000000, 1.000000000000000000 ) ) ;
#224 = PRODUCT_RELATED_PRODUCT_CATEGORY ( 'detail', '', ( #140 ) ) ;
#225 = AXIS2_PLACEMENT_3D ( 'NONE', #114, #159, #4 ) ;
#226 = ORIENTED_EDGE ( 'NONE', *, *, #127, .T. ) ;
#227 = APPROVAL_STATUS ( 'not_yet_approved' ) ;
#228 = LOCAL_TIME ( 17, 1, 53.00000000000000000, #83 ) ;
#229 = ORIENTED_EDGE ( 'NONE', *, *, #248, .F. ) ;
#230 = DATE_AND_TIME ( #86, #228 ) ;
#231 = CARTESIAN_POINT ( 'NONE',  ( 0.000000000000000000, 0.000000000000000000, 0.000000000000000000 ) ) ;
#232 = DIRECTION ( 'NONE',  ( 0.000000000000000000, 0.000000000000000000, 1.000000000000000000 ) ) ;
#233 = DATE_TIME_ROLE ( 'creation_date' ) ;
#234 = DIRECTION ( 'NONE',  ( -0.000000000000000000, -0.000000000000000000, -1.000000000000000000 ) ) ;
#235 = CARTESIAN_POINT ( 'NONE',  ( 0.000000000000000000, 0.000000000000000000, 5.000000000000000000 ) ) ;
#236 = ADVANCED_FACE ( 'NONE', ( #166, #119 ), #218, .T. ) ;
#237 = UNCERTAINTY_MEASURE_WITH_UNIT (LENGTH_MEASURE( 1.000000000000000082E-05 ), #44, 'distance_accuracy_value', 'NONE');
#238 = CARTESIAN_POINT ( 'NONE',  ( 0.000000000000000000, 0.000000000000000000, 160.0000000000000000 ) ) ;
#239 = CARTESIAN_POINT ( 'NONE',  ( 0.000000000000000000, 0.000000000000000000, 0.000000000000000000 ) ) ;
#240 = CARTESIAN_POINT ( 'NONE',  ( 0.000000000000000000, 0.000000000000000000, 160.0000000000000000 ) ) ;
#241 = VECTOR ( 'NONE', #153, 1000.000000000000000 ) ;
#242 = LOCAL_TIME ( 17, 1, 53.00000000000000000, #63 ) ;
#243 = PERSON_AND_ORGANIZATION ( #147, #151 ) ;
#244 = DIRECTION ( 'NONE',  ( 1.000000000000000000, 0.000000000000000000, 0.000000000000000000 ) ) ;
#245 = DIRECTION ( 'NONE',  ( -0.000000000000000000, -0.000000000000000000, -1.000000000000000000 ) ) ;
#246 = EDGE_CURVE ( 'NONE', #164, #210, #255, .T. ) ;
#247 = CIRCLE ( 'NONE', #39, 5.000000000000000000 ) ;
#248 = EDGE_CURVE ( 'NONE', #192, #14, #247, .T. ) ;
#249 = DIRECTION ( 'NONE',  ( 0.000000000000000000, 0.000000000000000000, 1.000000000000000000 ) ) ;
#250 = ORIENTED_EDGE ( 'NONE', *, *, #33, .T. ) ;
#251 = ORIENTED_EDGE ( 'NONE', *, *, #246, .F. ) ;
#252 = APPROVAL_DATE_TIME ( #134, #116 ) ;
#253 = LINE ( 'NONE', #1, #103 ) ;
#254 = DIRECTION ( 'NONE',  ( -0.000000000000000000, -0.000000000000000000, -1.000000000000000000 ) ) ;
#255 = CIRCLE ( 'NONE', #144, 2.750000000000000000 ) ;
ENDSEC;
END-ISO-10303-21;
