ISO-10303-21;
HEADER;
FILE_DESCRIPTION (( 'STEP AP203' ),
    '1' );
FILE_NAME ('1d5d.STEP',
    '2023-02-13T17:15:20',
    ( '' ),
    ( '' ),
    'SwSTEP 2.0',
    'SolidWorks 2019',
    '' );
FILE_SCHEMA (( 'CONFIG_CONTROL_DESIGN' ));
ENDSEC;

DATA;
#1 = EDGE_LOOP ( 'NONE', ( #209, #179, #203, #121 ) ) ;
#2 = LINE ( 'NONE', #136, #37 ) ;
#3 = DIRECTION ( 'NONE',  ( -0.000000000000000000, -0.000000000000000000, -1.000000000000000000 ) ) ;
#4 = EDGE_LOOP ( 'NONE', ( #154, #139 ) ) ;
#5 = AXIS2_PLACEMENT_3D ( 'NONE', #223, #90, #51 ) ;
#6 = DIRECTION ( 'NONE',  ( -0.000000000000000000, -0.000000000000000000, -1.000000000000000000 ) ) ;
#7 = CIRCLE ( 'NONE', #44, 2.000000000000000000 ) ;
#8 = COORDINATED_UNIVERSAL_TIME_OFFSET ( 1, 0, .AHEAD. ) ;
#9 = APPROVAL_DATE_TIME ( #248, #174 ) ;
#10 = CYLINDRICAL_SURFACE ( 'NONE', #5, 2.000000000000000000 ) ;
#11 = AXIS2_PLACEMENT_3D ( 'NONE', #205, #164, #55 ) ;
#12 = VERTEX_POINT ( 'NONE', #192 ) ;
#13 = APPROVAL ( #19, 'NEURÈENÝ' ) ;
#14 = CIRCLE ( 'NONE', #157, 0.9499999999999999556 ) ;
#15 = CARTESIAN_POINT ( 'NONE',  ( -0.9499999999999999556, 0.000000000000000000, 160.0000000000000000 ) ) ;
#16 = APPLICATION_PROTOCOL_DEFINITION ( 'international standard', 'config_control_design', 1994, #31 ) ;
#17 = SECURITY_CLASSIFICATION ( '', '', #23 ) ;
#18 = DIRECTION ( 'NONE',  ( -1.000000000000000000, 0.000000000000000000, 0.000000000000000000 ) ) ;
#19 = APPROVAL_STATUS ( 'not_yet_approved' ) ;
#20 = CARTESIAN_POINT ( 'NONE',  ( 0.000000000000000000, 0.000000000000000000, 1.500000000000000000 ) ) ;
#21 = EDGE_CURVE ( 'NONE', #168, #68, #235, .T. ) ;
#22 = CC_DESIGN_APPROVAL ( #59, ( #92 ) ) ;
#23 = SECURITY_CLASSIFICATION_LEVEL ( 'unclassified' ) ;
#24 = AXIS2_PLACEMENT_3D ( 'NONE', #138, #99, #158 ) ;
#25 = PERSON_AND_ORGANIZATION ( #190, #75 ) ;
#26 = VERTEX_POINT ( 'NONE', #35 ) ;
#27 = EDGE_CURVE ( 'NONE', #26, #141, #14, .T. ) ;
#28 = CIRCLE ( 'NONE', #200, 2.000000000000000000 ) ;
#29 = CARTESIAN_POINT ( 'NONE',  ( 0.000000000000000000, 0.000000000000000000, 160.0000000000000000 ) ) ;
#30 = APPROVAL_STATUS ( 'not_yet_approved' ) ;
#31 = APPLICATION_CONTEXT ( 'configuration controlled 3d designs of mechanical parts and assemblies' ) ;
#32 = DIRECTION ( 'NONE',  ( 0.000000000000000000, 0.000000000000000000, 1.000000000000000000 ) ) ;
#33 = LINE ( 'NONE', #182, #212 ) ;
#34 = LOCAL_TIME ( 18, 15, 20.00000000000000000, #43 ) ;
#35 = CARTESIAN_POINT ( 'NONE',  ( -0.9499999999999999556, 0.000000000000000000, 160.0000000000000000 ) ) ;
#36 = UNCERTAINTY_MEASURE_WITH_UNIT (LENGTH_MEASURE( 1.000000000000000082E-05 ), #54, 'distance_accuracy_value', 'NONE');
#37 = VECTOR ( 'NONE', #118, 1000.000000000000000 ) ;
#38 = ADVANCED_FACE ( 'NONE', ( #214 ), #113, .T. ) ;
#39 = CARTESIAN_POINT ( 'NONE',  ( 0.000000000000000000, 0.000000000000000000, 160.0000000000000000 ) ) ;
#40 = PERSON_AND_ORGANIZATION_ROLE ( 'creator' ) ;
#41 = CARTESIAN_POINT ( 'NONE',  ( 0.000000000000000000, 0.000000000000000000, 0.000000000000000000 ) ) ;
#42 = COORDINATED_UNIVERSAL_TIME_OFFSET ( 1, 0, .AHEAD. ) ;
#43 = COORDINATED_UNIVERSAL_TIME_OFFSET ( 1, 0, .AHEAD. ) ;
#44 = AXIS2_PLACEMENT_3D ( 'NONE', #208, #89, #247 ) ;
#45 = ORIENTED_EDGE ( 'NONE', *, *, #166, .F. ) ;
#46 = APPLICATION_CONTEXT ( 'configuration controlled 3d designs of mechanical parts and assemblies' ) ;
#47 = DIRECTION ( 'NONE',  ( 0.000000000000000000, 0.000000000000000000, 1.000000000000000000 ) ) ;
#48 = AXIS2_PLACEMENT_3D ( 'NONE', #226, #32, #143 ) ;
#49 = PERSON_AND_ORGANIZATION ( #190, #75 ) ;
#50 = CC_DESIGN_PERSON_AND_ORGANIZATION_ASSIGNMENT ( #233, #40, ( #227 ) ) ;
#51 = DIRECTION ( 'NONE',  ( -1.000000000000000000, 0.000000000000000000, 0.000000000000000000 ) ) ;
#52 = DIRECTION ( 'NONE',  ( 0.000000000000000000, 0.000000000000000000, 1.000000000000000000 ) ) ;
#53 = CIRCLE ( 'NONE', #11, 2.000000000000000000 ) ;
#54 =( LENGTH_UNIT ( ) NAMED_UNIT ( * ) SI_UNIT ( .MILLI., .METRE. ) );
#55 = DIRECTION ( 'NONE',  ( 1.000000000000000000, 0.000000000000000000, 0.000000000000000000 ) ) ;
#56 = ORIENTED_EDGE ( 'NONE', *, *, #122, .T. ) ;
#57 = DIRECTION ( 'NONE',  ( 0.000000000000000000, 0.000000000000000000, 1.000000000000000000 ) ) ;
#58 = LOCAL_TIME ( 18, 15, 20.00000000000000000, #251 ) ;
#59 = APPROVAL ( #177, 'NEURÈENÝ' ) ;
#60 = DATE_TIME_ROLE ( 'creation_date' ) ;
#61 = DIRECTION ( 'NONE',  ( -1.000000000000000000, 0.000000000000000000, 0.000000000000000000 ) ) ;
#62 = APPROVAL_ROLE ( '' ) ;
#63 = CC_DESIGN_SECURITY_CLASSIFICATION ( #17, ( #227 ) ) ;
#64 = PERSON_AND_ORGANIZATION_ROLE ( 'classification_officer' ) ;
#65 = ADVANCED_FACE ( 'NONE', ( #170, #76 ), #250, .T. ) ;
#66 = ORIENTED_EDGE ( 'NONE', *, *, #21, .F. ) ;
#67 = PERSON_AND_ORGANIZATION ( #190, #75 ) ;
#68 = VERTEX_POINT ( 'NONE', #230 ) ;
#69 = CALENDAR_DATE ( 2023, 13, 2 ) ;
#70 = AXIS2_PLACEMENT_3D ( 'NONE', #81, #244, #80 ) ;
#71 = LINE ( 'NONE', #149, #236 ) ;
#72 = EDGE_CURVE ( 'NONE', #26, #184, #132, .T. ) ;
#73 = CLOSED_SHELL ( 'NONE', ( #38, #198, #105, #65, #84, #109, #152 ) ) ;
#74 = DIRECTION ( 'NONE',  ( 1.000000000000000000, 0.000000000000000000, -0.000000000000000000 ) ) ;
#75 = ORGANIZATION ( 'NEURÈENÝ', 'NEURÈENÝ', '' ) ;
#76 = FACE_OUTER_BOUND ( 'NONE', #220, .T. ) ;
#77 = CYLINDRICAL_SURFACE ( 'NONE', #162, 0.9499999999999999556 ) ;
#78 = DIRECTION ( 'NONE',  ( -0.000000000000000000, -0.000000000000000000, -1.000000000000000000 ) ) ;
#79 = APPROVAL_PERSON_ORGANIZATION ( #67, #13, #95 ) ;
#80 = DIRECTION ( 'NONE',  ( 1.000000000000000000, 0.000000000000000000, 0.000000000000000000 ) ) ;
#81 = CARTESIAN_POINT ( 'NONE',  ( 0.000000000000000000, 0.000000000000000000, 1.500000000000000000 ) ) ;
#82 = ORIENTED_EDGE ( 'NONE', *, *, #102, .F. ) ;
#83 = CARTESIAN_POINT ( 'NONE',  ( -2.000000000000000000, 0.000000000000000000, 1.500000000000000000 ) ) ;
#84 = ADVANCED_FACE ( 'NONE', ( #178 ), #101, .F. ) ;
#85 = EDGE_LOOP ( 'NONE', ( #224, #151, #110, #185 ) ) ;
#86 = DIRECTION ( 'NONE',  ( 0.000000000000000000, 0.000000000000000000, 1.000000000000000000 ) ) ;
#87 = CARTESIAN_POINT ( 'NONE',  ( 0.9499999999999999556, 1.163414459189985682E-16, 160.0000000000000000 ) ) ;
#88 = EDGE_CURVE ( 'NONE', #141, #153, #2, .T. ) ;
#89 = DIRECTION ( 'NONE',  ( 0.000000000000000000, 0.000000000000000000, 1.000000000000000000 ) ) ;
#90 = DIRECTION ( 'NONE',  ( -0.000000000000000000, -0.000000000000000000, -1.000000000000000000 ) ) ;
#91 = ORIENTED_EDGE ( 'NONE', *, *, #21, .T. ) ;
#92 = PRODUCT_DEFINITION ( 'NEZNÁMÝ', '', #227, #210 ) ;
#93 = CIRCLE ( 'NONE', #195, 0.9499999999999999556 ) ;
#94 = EDGE_LOOP ( 'NONE', ( #249, #66 ) ) ;
#95 = APPROVAL_ROLE ( '' ) ;
#96 = DIRECTION ( 'NONE',  ( 0.000000000000000000, 0.000000000000000000, 1.000000000000000000 ) ) ;
#97 = CALENDAR_DATE ( 2023, 13, 2 ) ;
#98 = PERSON_AND_ORGANIZATION ( #190, #75 ) ;
#99 = DIRECTION ( 'NONE',  ( -0.000000000000000000, -0.000000000000000000, -1.000000000000000000 ) ) ;
#100 = CIRCLE ( 'NONE', #240, 0.9499999999999999556 ) ;
#101 = PLANE ( 'NONE',  #145 ) ;
#102 = EDGE_CURVE ( 'NONE', #184, #153, #176, .T. ) ;
#103 = ORIENTED_EDGE ( 'NONE', *, *, #135, .T. ) ;
#104 = DIRECTION ( 'NONE',  ( 1.000000000000000000, 0.000000000000000000, 0.000000000000000000 ) ) ;
#105 = ADVANCED_FACE ( 'NONE', ( #253 ), #252, .T. ) ;
#106 = DATE_TIME_ROLE ( 'classification_date' ) ;
#107 =( NAMED_UNIT ( * ) SI_UNIT ( $, .STERADIAN. ) SOLID_ANGLE_UNIT ( ) );
#108 = CARTESIAN_POINT ( 'NONE',  ( -0.9499999999999999556, 0.000000000000000000, 1.500000000000000000 ) ) ;
#109 = ADVANCED_FACE ( 'NONE', ( #123 ), #77, .T. ) ;
#110 = ORIENTED_EDGE ( 'NONE', *, *, #166, .T. ) ;
#111 = CC_DESIGN_APPROVAL ( #13, ( #227 ) ) ;
#112 = CC_DESIGN_PERSON_AND_ORGANIZATION_ASSIGNMENT ( #114, #199, ( #227 ) ) ;
#113 = CYLINDRICAL_SURFACE ( 'NONE', #225, 0.9499999999999999556 ) ;
#114 = PERSON_AND_ORGANIZATION ( #190, #75 ) ;
#115 = LOCAL_TIME ( 18, 15, 20.00000000000000000, #8 ) ;
#116 = PERSON_AND_ORGANIZATION ( #190, #75 ) ;
#117 = DIRECTION ( 'NONE',  ( 1.000000000000000000, 0.000000000000000000, -0.000000000000000000 ) ) ;
#118 = DIRECTION ( 'NONE',  ( -0.000000000000000000, -0.000000000000000000, -1.000000000000000000 ) ) ;
#119 = ORIENTED_EDGE ( 'NONE', *, *, #122, .F. ) ;
#120 = DIRECTION ( 'NONE',  ( 1.000000000000000000, 0.000000000000000000, 0.000000000000000000 ) ) ;
#121 = ORIENTED_EDGE ( 'NONE', *, *, #102, .T. ) ;
#122 = EDGE_CURVE ( 'NONE', #242, #12, #7, .T. ) ;
#123 = FACE_OUTER_BOUND ( 'NONE', #1, .T. ) ;
#124 = AXIS2_PLACEMENT_3D ( 'NONE', #134, #173, #169 ) ;
#125 = FACE_OUTER_BOUND ( 'NONE', #4, .T. ) ;
#126 = EDGE_LOOP ( 'NONE', ( #82, #45 ) ) ;
#127 = CC_DESIGN_PERSON_AND_ORGANIZATION_ASSIGNMENT ( #25, #243, ( #92 ) ) ;
#128 = CARTESIAN_POINT ( 'NONE',  ( 0.000000000000000000, 0.000000000000000000, 1.500000000000000000 ) ) ;
#129 = PRODUCT_DEFINITION_SHAPE ( 'NONE', 'NONE',  #92 ) ;
#130 = EDGE_LOOP ( 'NONE', ( #189, #144, #91, #201 ) ) ;
#131 = PRODUCT_RELATED_PRODUCT_CATEGORY ( 'detail', '', ( #165 ) ) ;
#132 = LINE ( 'NONE', #15, #232 ) ;
#133 = ORIENTED_EDGE ( 'NONE', *, *, #206, .T. ) ;
#134 = CARTESIAN_POINT ( 'NONE',  ( 0.000000000000000000, 0.000000000000000000, 0.000000000000000000 ) ) ;
#135 = EDGE_CURVE ( 'NONE', #242, #68, #71, .T. ) ;
#136 = CARTESIAN_POINT ( 'NONE',  ( 0.9499999999999999556, 1.163414459189985682E-16, 160.0000000000000000 ) ) ;
#137 = COORDINATED_UNIVERSAL_TIME_OFFSET ( 1, 0, .AHEAD. ) ;
#138 = CARTESIAN_POINT ( 'NONE',  ( 0.000000000000000000, 0.000000000000000000, 1.500000000000000000 ) ) ;
#139 = ORIENTED_EDGE ( 'NONE', *, *, #159, .T. ) ;
#140 = DATE_AND_TIME ( #155, #58 ) ;
#141 = VERTEX_POINT ( 'NONE', #87 ) ;
#142 =( GEOMETRIC_REPRESENTATION_CONTEXT ( 3 ) GLOBAL_UNCERTAINTY_ASSIGNED_CONTEXT ( ( #36 ) ) GLOBAL_UNIT_ASSIGNED_CONTEXT ( ( #54, #246, #107 ) ) REPRESENTATION_CONTEXT ( 'NONE', 'WORKASPACE' ) );
#143 = DIRECTION ( 'NONE',  ( 1.000000000000000000, 0.000000000000000000, -0.000000000000000000 ) ) ;
#144 = ORIENTED_EDGE ( 'NONE', *, *, #217, .T. ) ;
#145 = AXIS2_PLACEMENT_3D ( 'NONE', #41, #47, #117 ) ;
#146 = CARTESIAN_POINT ( 'NONE',  ( 0.9499999999999999556, 1.163414459189985682E-16, 1.500000000000000000 ) ) ;
#147 = MANIFOLD_SOLID_BREP ( 'Pøidat vysunutím3', #73 ) ;
#148 = ADVANCED_BREP_SHAPE_REPRESENTATION ( '1d5d', ( #147, #167 ), #142 ) ;
#149 = CARTESIAN_POINT ( 'NONE',  ( -2.000000000000000000, 0.000000000000000000, 1.500000000000000000 ) ) ;
#150 = DIRECTION ( 'NONE',  ( 1.000000000000000000, 0.000000000000000000, 0.000000000000000000 ) ) ;
#151 = ORIENTED_EDGE ( 'NONE', *, *, #88, .T. ) ;
#152 = ADVANCED_FACE ( 'NONE', ( #125 ), #163, .T. ) ;
#153 = VERTEX_POINT ( 'NONE', #146 ) ;
#154 = ORIENTED_EDGE ( 'NONE', *, *, #27, .T. ) ;
#155 = CALENDAR_DATE ( 2023, 13, 2 ) ;
#156 = CARTESIAN_POINT ( 'NONE',  ( 0.000000000000000000, 0.000000000000000000, 160.0000000000000000 ) ) ;
#157 = AXIS2_PLACEMENT_3D ( 'NONE', #211, #57, #194 ) ;
#158 = DIRECTION ( 'NONE',  ( -1.000000000000000000, 0.000000000000000000, 0.000000000000000000 ) ) ;
#159 = EDGE_CURVE ( 'NONE', #141, #26, #93, .T. ) ;
#160 = DATE_AND_TIME ( #180, #219 ) ;
#161 = EDGE_CURVE ( 'NONE', #68, #168, #28, .T. ) ;
#162 = AXIS2_PLACEMENT_3D ( 'NONE', #156, #234, #61 ) ;
#163 = PLANE ( 'NONE',  #48 ) ;
#164 = DIRECTION ( 'NONE',  ( 0.000000000000000000, 0.000000000000000000, 1.000000000000000000 ) ) ;
#165 = PRODUCT ( '1d5d', '1d5d', '', ( #239 ) ) ;
#166 = EDGE_CURVE ( 'NONE', #153, #184, #100, .T. ) ;
#167 = AXIS2_PLACEMENT_3D ( 'NONE', #215, #197, #120 ) ;
#168 = VERTEX_POINT ( 'NONE', #207 ) ;
#169 = DIRECTION ( 'NONE',  ( 1.000000000000000000, 0.000000000000000000, 0.000000000000000000 ) ) ;
#170 = FACE_BOUND ( 'NONE', #126, .T. ) ;
#171 = APPROVAL_DATE_TIME ( #241, #59 ) ;
#172 = CC_DESIGN_APPROVAL ( #174, ( #17 ) ) ;
#173 = DIRECTION ( 'NONE',  ( 0.000000000000000000, 0.000000000000000000, 1.000000000000000000 ) ) ;
#174 = APPROVAL ( #30, 'NEURÈENÝ' ) ;
#175 = APPLICATION_PROTOCOL_DEFINITION ( 'international standard', 'config_control_design', 1994, #46 ) ;
#176 = CIRCLE ( 'NONE', #70, 0.9499999999999999556 ) ;
#177 = APPROVAL_STATUS ( 'not_yet_approved' ) ;
#178 = FACE_OUTER_BOUND ( 'NONE', #94, .T. ) ;
#179 = ORIENTED_EDGE ( 'NONE', *, *, #27, .F. ) ;
#180 = CALENDAR_DATE ( 2023, 13, 2 ) ;
#181 = EDGE_LOOP ( 'NONE', ( #213, #119, #103, #245 ) ) ;
#182 = CARTESIAN_POINT ( 'NONE',  ( 2.000000000000000000, 2.449293598294706414E-16, 1.500000000000000000 ) ) ;
#183 = CC_DESIGN_PERSON_AND_ORGANIZATION_ASSIGNMENT ( #98, #238, ( #165 ) ) ;
#184 = VERTEX_POINT ( 'NONE', #108 ) ;
#185 = ORIENTED_EDGE ( 'NONE', *, *, #72, .F. ) ;
#186 = DIRECTION ( 'NONE',  ( 0.000000000000000000, 0.000000000000000000, 1.000000000000000000 ) ) ;
#187 = SHAPE_DEFINITION_REPRESENTATION ( #129, #148 ) ;
#188 = FACE_OUTER_BOUND ( 'NONE', #130, .T. ) ;
#189 = ORIENTED_EDGE ( 'NONE', *, *, #206, .F. ) ;
#190 = PERSON ( 'NEURÈENÝ', 'NEURÈENÝ', 'NEURÈENÝ', ('NEURÈENÝ'), ('NEURÈENÝ'), ('NEURÈENÝ') ) ;
#191 = AXIS2_PLACEMENT_3D ( 'NONE', #20, #96, #74 ) ;
#192 = CARTESIAN_POINT ( 'NONE',  ( 2.000000000000000000, 2.449293598294706414E-16, 1.500000000000000000 ) ) ;
#193 = CC_DESIGN_DATE_AND_TIME_ASSIGNMENT ( #204, #106, ( #17 ) ) ;
#194 = DIRECTION ( 'NONE',  ( 1.000000000000000000, 0.000000000000000000, 0.000000000000000000 ) ) ;
#195 = AXIS2_PLACEMENT_3D ( 'NONE', #29, #52, #104 ) ;
#196 = DIRECTION ( 'NONE',  ( -0.000000000000000000, -0.000000000000000000, -1.000000000000000000 ) ) ;
#197 = DIRECTION ( 'NONE',  ( 0.000000000000000000, 0.000000000000000000, 1.000000000000000000 ) ) ;
#198 = ADVANCED_FACE ( 'NONE', ( #188 ), #10, .T. ) ;
#199 = PERSON_AND_ORGANIZATION_ROLE ( 'design_supplier' ) ;
#200 = AXIS2_PLACEMENT_3D ( 'NONE', #228, #86, #150 ) ;
#201 = ORIENTED_EDGE ( 'NONE', *, *, #135, .F. ) ;
#202 = PERSON_AND_ORGANIZATION ( #190, #75 ) ;
#203 = ORIENTED_EDGE ( 'NONE', *, *, #72, .T. ) ;
#204 = DATE_AND_TIME ( #97, #34 ) ;
#205 = CARTESIAN_POINT ( 'NONE',  ( 0.000000000000000000, 0.000000000000000000, 1.500000000000000000 ) ) ;
#206 = EDGE_CURVE ( 'NONE', #12, #242, #53, .T. ) ;
#207 = CARTESIAN_POINT ( 'NONE',  ( 2.000000000000000000, 2.449293598294706414E-16, 0.000000000000000000 ) ) ;
#208 = CARTESIAN_POINT ( 'NONE',  ( 0.000000000000000000, 0.000000000000000000, 1.500000000000000000 ) ) ;
#209 = ORIENTED_EDGE ( 'NONE', *, *, #88, .F. ) ;
#210 = DESIGN_CONTEXT ( 'detailed design', #46, 'design' ) ;
#211 = CARTESIAN_POINT ( 'NONE',  ( 0.000000000000000000, 0.000000000000000000, 160.0000000000000000 ) ) ;
#212 = VECTOR ( 'NONE', #3, 1000.000000000000000 ) ;
#213 = ORIENTED_EDGE ( 'NONE', *, *, #217, .F. ) ;
#214 = FACE_OUTER_BOUND ( 'NONE', #85, .T. ) ;
#215 = CARTESIAN_POINT ( 'NONE',  ( 0.000000000000000000, 0.000000000000000000, 0.000000000000000000 ) ) ;
#216 = APPROVAL_PERSON_ORGANIZATION ( #49, #174, #222 ) ;
#217 = EDGE_CURVE ( 'NONE', #12, #168, #33, .T. ) ;
#218 = APPROVAL_DATE_TIME ( #140, #13 ) ;
#219 = LOCAL_TIME ( 18, 15, 20.00000000000000000, #42 ) ;
#220 = EDGE_LOOP ( 'NONE', ( #56, #133 ) ) ;
#221 = CC_DESIGN_PERSON_AND_ORGANIZATION_ASSIGNMENT ( #116, #64, ( #17 ) ) ;
#222 = APPROVAL_ROLE ( '' ) ;
#223 = CARTESIAN_POINT ( 'NONE',  ( 0.000000000000000000, 0.000000000000000000, 1.500000000000000000 ) ) ;
#224 = ORIENTED_EDGE ( 'NONE', *, *, #159, .F. ) ;
#225 = AXIS2_PLACEMENT_3D ( 'NONE', #39, #196, #18 ) ;
#226 = CARTESIAN_POINT ( 'NONE',  ( 0.000000000000000000, 0.000000000000000000, 160.0000000000000000 ) ) ;
#227 = PRODUCT_DEFINITION_FORMATION_WITH_SPECIFIED_SOURCE ( 'LIBOVOLNÝ', '', #165, .NOT_KNOWN. ) ;
#228 = CARTESIAN_POINT ( 'NONE',  ( 0.000000000000000000, 0.000000000000000000, 0.000000000000000000 ) ) ;
#229 = DIRECTION ( 'NONE',  ( 1.000000000000000000, 0.000000000000000000, 0.000000000000000000 ) ) ;
#230 = CARTESIAN_POINT ( 'NONE',  ( -2.000000000000000000, 0.000000000000000000, 0.000000000000000000 ) ) ;
#231 = APPROVAL_PERSON_ORGANIZATION ( #202, #59, #62 ) ;
#232 = VECTOR ( 'NONE', #78, 1000.000000000000000 ) ;
#233 = PERSON_AND_ORGANIZATION ( #190, #75 ) ;
#234 = DIRECTION ( 'NONE',  ( -0.000000000000000000, -0.000000000000000000, -1.000000000000000000 ) ) ;
#235 = CIRCLE ( 'NONE', #124, 2.000000000000000000 ) ;
#236 = VECTOR ( 'NONE', #6, 1000.000000000000000 ) ;
#237 = CC_DESIGN_DATE_AND_TIME_ASSIGNMENT ( #160, #60, ( #92 ) ) ;
#238 = PERSON_AND_ORGANIZATION_ROLE ( 'design_owner' ) ;
#239 = MECHANICAL_CONTEXT ( 'NONE', #31, 'mechanical' ) ;
#240 = AXIS2_PLACEMENT_3D ( 'NONE', #128, #186, #229 ) ;
#241 = DATE_AND_TIME ( #255, #254 ) ;
#242 = VERTEX_POINT ( 'NONE', #83 ) ;
#243 = PERSON_AND_ORGANIZATION_ROLE ( 'creator' ) ;
#244 = DIRECTION ( 'NONE',  ( 0.000000000000000000, 0.000000000000000000, 1.000000000000000000 ) ) ;
#245 = ORIENTED_EDGE ( 'NONE', *, *, #161, .T. ) ;
#246 =( NAMED_UNIT ( * ) PLANE_ANGLE_UNIT ( ) SI_UNIT ( $, .RADIAN. ) );
#247 = DIRECTION ( 'NONE',  ( 1.000000000000000000, 0.000000000000000000, 0.000000000000000000 ) ) ;
#248 = DATE_AND_TIME ( #69, #115 ) ;
#249 = ORIENTED_EDGE ( 'NONE', *, *, #161, .F. ) ;
#250 = PLANE ( 'NONE',  #191 ) ;
#251 = COORDINATED_UNIVERSAL_TIME_OFFSET ( 1, 0, .AHEAD. ) ;
#252 = CYLINDRICAL_SURFACE ( 'NONE', #24, 2.000000000000000000 ) ;
#253 = FACE_OUTER_BOUND ( 'NONE', #181, .T. ) ;
#254 = LOCAL_TIME ( 18, 15, 20.00000000000000000, #137 ) ;
#255 = CALENDAR_DATE ( 2023, 13, 2 ) ;
ENDSEC;
END-ISO-10303-21;
