ISO-10303-21;
HEADER;
FILE_DESCRIPTION (( 'STEP AP203' ),
    '1' );
FILE_NAME ('96df.STEP',
    '2023-02-13T08:41:10',
    ( '' ),
    ( '' ),
    'SwSTEP 2.0',
    'SolidWorks 2019',
    '' );
FILE_SCHEMA (( 'CONFIG_CONTROL_DESIGN' ));
ENDSEC;

DATA;
#1 = APPROVAL_PERSON_ORGANIZATION ( #54, #146, #139 ) ;
#2 = APPROVAL_DATE_TIME ( #203, #38 ) ;
#3 = CARTESIAN_POINT ( 'NONE',  ( -10.00000000000000000, 0.000000000000000000, 250.0000000000000000 ) ) ;
#4 = DIRECTION ( 'NONE',  ( -0.000000000000000000, -0.000000000000000000, -1.000000000000000000 ) ) ;
#5 = CARTESIAN_POINT ( 'NONE',  ( 0.000000000000000000, 0.000000000000000000, 0.000000000000000000 ) ) ;
#6 = AXIS2_PLACEMENT_3D ( 'NONE', #241, #112, #170 ) ;
#7 = DIRECTION ( 'NONE',  ( -1.000000000000000000, 0.000000000000000000, 0.000000000000000000 ) ) ;
#8 = PRODUCT_RELATED_PRODUCT_CATEGORY ( 'detail', '', ( #19 ) ) ;
#9 = CARTESIAN_POINT ( 'NONE',  ( 10.00000000000000000, 1.224646799147353256E-15, 250.0000000000000000 ) ) ;
#10 = DIRECTION ( 'NONE',  ( 0.000000000000000000, 0.000000000000000000, 1.000000000000000000 ) ) ;
#11 = AXIS2_PLACEMENT_3D ( 'NONE', #152, #190, #111 ) ;
#12 = EDGE_CURVE ( 'NONE', #222, #45, #186, .T. ) ;
#13 = DIRECTION ( 'NONE',  ( 1.000000000000000000, 0.000000000000000000, -0.000000000000000000 ) ) ;
#14 = ORGANIZATION ( 'NEURÈENÝ', 'NEURÈENÝ', '' ) ;
#15 = CC_DESIGN_DATE_AND_TIME_ASSIGNMENT ( #252, #36, ( #63 ) ) ;
#16 = ORIENTED_EDGE ( 'NONE', *, *, #174, .F. ) ;
#17 = CALENDAR_DATE ( 2023, 13, 2 ) ;
#18 = ORIENTED_EDGE ( 'NONE', *, *, #184, .T. ) ;
#19 = PRODUCT ( '96df', '96df', '', ( #33 ) ) ;
#20 = DIRECTION ( 'NONE',  ( 1.000000000000000000, 0.000000000000000000, 0.000000000000000000 ) ) ;
#21 = EDGE_LOOP ( 'NONE', ( #16, #204 ) ) ;
#22 = EDGE_CURVE ( 'NONE', #222, #177, #142, .T. ) ;
#23 = ADVANCED_BREP_SHAPE_REPRESENTATION ( '96df', ( #238, #127 ), #198 ) ;
#24 = AXIS2_PLACEMENT_3D ( 'NONE', #208, #91, #30 ) ;
#25 = ORIENTED_EDGE ( 'NONE', *, *, #12, .T. ) ;
#26 = PLANE ( 'NONE',  #207 ) ;
#27 = CC_DESIGN_PERSON_AND_ORGANIZATION_ASSIGNMENT ( #34, #179, ( #19 ) ) ;
#28 = DIRECTION ( 'NONE',  ( 0.000000000000000000, 0.000000000000000000, 1.000000000000000000 ) ) ;
#29 = FACE_OUTER_BOUND ( 'NONE', #66, .T. ) ;
#30 = DIRECTION ( 'NONE',  ( 1.000000000000000000, 0.000000000000000000, -0.000000000000000000 ) ) ;
#31 = FACE_OUTER_BOUND ( 'NONE', #122, .T. ) ;
#32 = APPROVAL_ROLE ( '' ) ;
#33 = MECHANICAL_CONTEXT ( 'NONE', #85, 'mechanical' ) ;
#34 = PERSON_AND_ORGANIZATION ( #97, #14 ) ;
#35 = ORIENTED_EDGE ( 'NONE', *, *, #255, .T. ) ;
#36 = DATE_TIME_ROLE ( 'classification_date' ) ;
#37 = ORIENTED_EDGE ( 'NONE', *, *, #213, .F. ) ;
#38 = APPROVAL ( #228, 'NEURÈENÝ' ) ;
#39 = PRODUCT_DEFINITION_SHAPE ( 'NONE', 'NONE',  #47 ) ;
#40 = COORDINATED_UNIVERSAL_TIME_OFFSET ( 1, 0, .AHEAD. ) ;
#41 = LOCAL_TIME ( 9, 41, 10.00000000000000000, #234 ) ;
#42 = ADVANCED_FACE ( 'NONE', ( #159 ), #187, .T. ) ;
#43 = EDGE_LOOP ( 'NONE', ( #130, #102 ) ) ;
#44 = DESIGN_CONTEXT ( 'detailed design', #178, 'design' ) ;
#45 = VERTEX_POINT ( 'NONE', #240 ) ;
#46 = CARTESIAN_POINT ( 'NONE',  ( 0.000000000000000000, 0.000000000000000000, 7.000000000000000000 ) ) ;
#47 = PRODUCT_DEFINITION ( 'NEZNÁMÝ', '', #106, #44 ) ;
#48 = DIRECTION ( 'NONE',  ( -0.000000000000000000, -0.000000000000000000, -1.000000000000000000 ) ) ;
#49 = CARTESIAN_POINT ( 'NONE',  ( 0.000000000000000000, 0.000000000000000000, 250.0000000000000000 ) ) ;
#50 = UNCERTAINTY_MEASURE_WITH_UNIT (LENGTH_MEASURE( 1.000000000000000082E-05 ), #121, 'distance_accuracy_value', 'NONE');
#51 = AXIS2_PLACEMENT_3D ( 'NONE', #5, #89, #150 ) ;
#52 = CARTESIAN_POINT ( 'NONE',  ( 0.000000000000000000, 0.000000000000000000, 0.000000000000000000 ) ) ;
#53 = DIRECTION ( 'NONE',  ( 1.000000000000000000, 0.000000000000000000, 0.000000000000000000 ) ) ;
#54 = PERSON_AND_ORGANIZATION ( #97, #14 ) ;
#55 = CLOSED_SHELL ( 'NONE', ( #42, #137, #69, #220, #233, #114, #196 ) ) ;
#56 = APPROVAL_DATE_TIME ( #199, #87 ) ;
#57 = EDGE_CURVE ( 'NONE', #183, #88, #182, .T. ) ;
#58 = DATE_TIME_ROLE ( 'creation_date' ) ;
#59 = CARTESIAN_POINT ( 'NONE',  ( 0.000000000000000000, 0.000000000000000000, 0.000000000000000000 ) ) ;
#60 = CALENDAR_DATE ( 2023, 13, 2 ) ;
#61 = EDGE_CURVE ( 'NONE', #177, #222, #103, .T. ) ;
#62 = VECTOR ( 'NONE', #251, 1000.000000000000000 ) ;
#63 = SECURITY_CLASSIFICATION ( '', '', #80 ) ;
#64 = ORIENTED_EDGE ( 'NONE', *, *, #61, .F. ) ;
#65 = AXIS2_PLACEMENT_3D ( 'NONE', #52, #165, #210 ) ;
#66 = EDGE_LOOP ( 'NONE', ( #37, #35, #180, #128 ) ) ;
#67 = CARTESIAN_POINT ( 'NONE',  ( 0.000000000000000000, 0.000000000000000000, 250.0000000000000000 ) ) ;
#68 = CARTESIAN_POINT ( 'NONE',  ( 0.000000000000000000, 0.000000000000000000, 0.000000000000000000 ) ) ;
#69 = ADVANCED_FACE ( 'NONE', ( #243 ), #212, .T. ) ;
#70 = CARTESIAN_POINT ( 'NONE',  ( 10.00000000000000000, 1.224646799147353256E-15, 250.0000000000000000 ) ) ;
#71 = CYLINDRICAL_SURFACE ( 'NONE', #245, 14.00000000000000000 ) ;
#72 = CARTESIAN_POINT ( 'NONE',  ( 0.000000000000000000, 0.000000000000000000, 7.000000000000000000 ) ) ;
#73 = AXIS2_PLACEMENT_3D ( 'NONE', #153, #109, #132 ) ;
#74 = CIRCLE ( 'NONE', #6, 14.00000000000000000 ) ;
#75 = CARTESIAN_POINT ( 'NONE',  ( -14.00000000000000000, 0.000000000000000000, 7.000000000000000000 ) ) ;
#76 = CARTESIAN_POINT ( 'NONE',  ( 0.000000000000000000, 0.000000000000000000, 7.000000000000000000 ) ) ;
#77 = EDGE_CURVE ( 'NONE', #83, #45, #129, .T. ) ;
#78 = CALENDAR_DATE ( 2023, 13, 2 ) ;
#79 = VECTOR ( 'NONE', #224, 1000.000000000000000 ) ;
#80 = SECURITY_CLASSIFICATION_LEVEL ( 'unclassified' ) ;
#81 = APPROVAL_STATUS ( 'not_yet_approved' ) ;
#82 = ORIENTED_EDGE ( 'NONE', *, *, #107, .T. ) ;
#83 = VERTEX_POINT ( 'NONE', #189 ) ;
#84 = SHAPE_DEFINITION_REPRESENTATION ( #39, #23 ) ;
#85 = APPLICATION_CONTEXT ( 'configuration controlled 3d designs of mechanical parts and assemblies' ) ;
#86 = DIRECTION ( 'NONE',  ( 0.000000000000000000, 0.000000000000000000, 1.000000000000000000 ) ) ;
#87 = APPROVAL ( #156, 'NEURÈENÝ' ) ;
#88 = VERTEX_POINT ( 'NONE', #244 ) ;
#89 = DIRECTION ( 'NONE',  ( 0.000000000000000000, 0.000000000000000000, 1.000000000000000000 ) ) ;
#90 = CC_DESIGN_APPROVAL ( #146, ( #106 ) ) ;
#91 = DIRECTION ( 'NONE',  ( 0.000000000000000000, 0.000000000000000000, 1.000000000000000000 ) ) ;
#92 = LINE ( 'NONE', #70, #123 ) ;
#93 = CC_DESIGN_DATE_AND_TIME_ASSIGNMENT ( #232, #58, ( #47 ) ) ;
#94 = PLANE ( 'NONE',  #24 ) ;
#95 = CC_DESIGN_APPROVAL ( #38, ( #63 ) ) ;
#96 = CARTESIAN_POINT ( 'NONE',  ( -10.00000000000000000, 0.000000000000000000, 250.0000000000000000 ) ) ;
#97 = PERSON ( 'NEURÈENÝ', 'NEURÈENÝ', 'NEURÈENÝ', ('NEURÈENÝ'), ('NEURÈENÝ'), ('NEURÈENÝ') ) ;
#98 = APPROVAL_DATE_TIME ( #144, #146 ) ;
#99 = ORIENTED_EDGE ( 'NONE', *, *, #141, .F. ) ;
#100 = CALENDAR_DATE ( 2023, 13, 2 ) ;
#101 = PERSON_AND_ORGANIZATION ( #97, #14 ) ;
#102 = ORIENTED_EDGE ( 'NONE', *, *, #77, .F. ) ;
#103 = CIRCLE ( 'NONE', #235, 10.00000000000000000 ) ;
#104 = EDGE_LOOP ( 'NONE', ( #161, #118 ) ) ;
#105 = CIRCLE ( 'NONE', #126, 14.00000000000000000 ) ;
#106 = PRODUCT_DEFINITION_FORMATION_WITH_SPECIFIED_SOURCE ( 'LIBOVOLNÝ', '', #19, .NOT_KNOWN. ) ;
#107 = EDGE_CURVE ( 'NONE', #177, #83, #92, .T. ) ;
#108 = ORIENTED_EDGE ( 'NONE', *, *, #77, .T. ) ;
#109 = DIRECTION ( 'NONE',  ( -0.000000000000000000, -0.000000000000000000, -1.000000000000000000 ) ) ;
#110 = DIRECTION ( 'NONE',  ( 0.000000000000000000, 0.000000000000000000, 1.000000000000000000 ) ) ;
#111 = DIRECTION ( 'NONE',  ( 1.000000000000000000, 0.000000000000000000, 0.000000000000000000 ) ) ;
#112 = DIRECTION ( 'NONE',  ( 0.000000000000000000, 0.000000000000000000, 1.000000000000000000 ) ) ;
#113 = FACE_OUTER_BOUND ( 'NONE', #104, .T. ) ;
#114 = ADVANCED_FACE ( 'NONE', ( #209 ), #242, .T. ) ;
#115 = PERSON_AND_ORGANIZATION ( #97, #14 ) ;
#116 = CARTESIAN_POINT ( 'NONE',  ( 14.00000000000000000, 1.714505518806294638E-15, 7.000000000000000000 ) ) ;
#117 =( NAMED_UNIT ( * ) PLANE_ANGLE_UNIT ( ) SI_UNIT ( $, .RADIAN. ) );
#118 = ORIENTED_EDGE ( 'NONE', *, *, #213, .T. ) ;
#119 = APPLICATION_PROTOCOL_DEFINITION ( 'international standard', 'config_control_design', 1994, #178 ) ;
#120 = CC_DESIGN_APPROVAL ( #87, ( #47 ) ) ;
#121 =( LENGTH_UNIT ( ) NAMED_UNIT ( * ) SI_UNIT ( .MILLI., .METRE. ) );
#122 = EDGE_LOOP ( 'NONE', ( #253, #200 ) ) ;
#123 = VECTOR ( 'NONE', #168, 1000.000000000000000 ) ;
#124 = CC_DESIGN_PERSON_AND_ORGANIZATION_ASSIGNMENT ( #158, #140, ( #63 ) ) ;
#125 = CALENDAR_DATE ( 2023, 13, 2 ) ;
#126 = AXIS2_PLACEMENT_3D ( 'NONE', #46, #28, #225 ) ;
#127 = AXIS2_PLACEMENT_3D ( 'NONE', #59, #160, #20 ) ;
#128 = ORIENTED_EDGE ( 'NONE', *, *, #166, .F. ) ;
#129 = CIRCLE ( 'NONE', #11, 10.00000000000000000 ) ;
#130 = ORIENTED_EDGE ( 'NONE', *, *, #184, .F. ) ;
#131 = CIRCLE ( 'NONE', #185, 10.00000000000000000 ) ;
#132 = DIRECTION ( 'NONE',  ( -1.000000000000000000, 0.000000000000000000, 0.000000000000000000 ) ) ;
#133 = DIRECTION ( 'NONE',  ( 0.000000000000000000, 0.000000000000000000, 1.000000000000000000 ) ) ;
#134 = DIRECTION ( 'NONE',  ( -0.000000000000000000, -0.000000000000000000, -1.000000000000000000 ) ) ;
#135 = DIRECTION ( 'NONE',  ( 1.000000000000000000, 0.000000000000000000, 0.000000000000000000 ) ) ;
#136 = CARTESIAN_POINT ( 'NONE',  ( 14.00000000000000000, 1.714505518806294638E-15, 0.000000000000000000 ) ) ;
#137 = ADVANCED_FACE ( 'NONE', ( #29 ), #71, .T. ) ;
#138 = PERSON_AND_ORGANIZATION_ROLE ( 'creator' ) ;
#139 = APPROVAL_ROLE ( '' ) ;
#141 = EDGE_CURVE ( 'NONE', #217, #254, #105, .T. ) ;
#140 = PERSON_AND_ORGANIZATION_ROLE ( 'classification_officer' ) ;
#142 = CIRCLE ( 'NONE', #221, 10.00000000000000000 ) ;
#143 = EDGE_LOOP ( 'NONE', ( #215, #236, #25, #18 ) ) ;
#144 = DATE_AND_TIME ( #60, #41 ) ;
#145 = LOCAL_TIME ( 9, 41, 10.00000000000000000, #214 ) ;
#146 = APPROVAL ( #81, 'NEURÈENÝ' ) ;
#147 = APPROVAL_PERSON_ORGANIZATION ( #101, #38, #32 ) ;
#148 = ORIENTED_EDGE ( 'NONE', *, *, #255, .F. ) ;
#149 = LOCAL_TIME ( 9, 41, 10.00000000000000000, #40 ) ;
#150 = DIRECTION ( 'NONE',  ( 1.000000000000000000, 0.000000000000000000, -0.000000000000000000 ) ) ;
#151 = CC_DESIGN_PERSON_AND_ORGANIZATION_ASSIGNMENT ( #176, #194, ( #106 ) ) ;
#152 = CARTESIAN_POINT ( 'NONE',  ( 0.000000000000000000, 0.000000000000000000, 7.000000000000000000 ) ) ;
#153 = CARTESIAN_POINT ( 'NONE',  ( 0.000000000000000000, 0.000000000000000000, 250.0000000000000000 ) ) ;
#154 = DIRECTION ( 'NONE',  ( 0.000000000000000000, 0.000000000000000000, 1.000000000000000000 ) ) ;
#155 = DIRECTION ( 'NONE',  ( -1.000000000000000000, 0.000000000000000000, 0.000000000000000000 ) ) ;
#156 = APPROVAL_STATUS ( 'not_yet_approved' ) ;
#157 = PERSON_AND_ORGANIZATION ( #97, #14 ) ;
#158 = PERSON_AND_ORGANIZATION ( #97, #14 ) ;
#159 = FACE_OUTER_BOUND ( 'NONE', #218, .T. ) ;
#160 = DIRECTION ( 'NONE',  ( 0.000000000000000000, 0.000000000000000000, 1.000000000000000000 ) ) ;
#161 = ORIENTED_EDGE ( 'NONE', *, *, #141, .T. ) ;
#162 = EDGE_LOOP ( 'NONE', ( #148, #99, #197, #239 ) ) ;
#163 = DIRECTION ( 'NONE',  ( 1.000000000000000000, 0.000000000000000000, 0.000000000000000000 ) ) ;
#164 = DIRECTION ( 'NONE',  ( -1.000000000000000000, 0.000000000000000000, 0.000000000000000000 ) ) ;
#165 = DIRECTION ( 'NONE',  ( 0.000000000000000000, 0.000000000000000000, 1.000000000000000000 ) ) ;
#166 = EDGE_CURVE ( 'NONE', #217, #88, #227, .T. ) ;
#167 = CC_DESIGN_SECURITY_CLASSIFICATION ( #63, ( #106 ) ) ;
#168 = DIRECTION ( 'NONE',  ( -0.000000000000000000, -0.000000000000000000, -1.000000000000000000 ) ) ;
#169 = CARTESIAN_POINT ( 'NONE',  ( 0.000000000000000000, 0.000000000000000000, 7.000000000000000000 ) ) ;
#170 = DIRECTION ( 'NONE',  ( 1.000000000000000000, 0.000000000000000000, 0.000000000000000000 ) ) ;
#171 = FACE_BOUND ( 'NONE', #43, .T. ) ;
#172 =( NAMED_UNIT ( * ) SI_UNIT ( $, .STERADIAN. ) SOLID_ANGLE_UNIT ( ) );
#173 = APPROVAL_ROLE ( '' ) ;
#174 = EDGE_CURVE ( 'NONE', #88, #183, #246, .T. ) ;
#175 = LOCAL_TIME ( 9, 41, 10.00000000000000000, #249 ) ;
#176 = PERSON_AND_ORGANIZATION ( #97, #14 ) ;
#177 = VERTEX_POINT ( 'NONE', #9 ) ;
#178 = APPLICATION_CONTEXT ( 'configuration controlled 3d designs of mechanical parts and assemblies' ) ;
#179 = PERSON_AND_ORGANIZATION_ROLE ( 'design_owner' ) ;
#180 = ORIENTED_EDGE ( 'NONE', *, *, #57, .T. ) ;
#181 = LINE ( 'NONE', #116, #216 ) ;
#182 = CIRCLE ( 'NONE', #230, 14.00000000000000000 ) ;
#183 = VERTEX_POINT ( 'NONE', #136 ) ;
#184 = EDGE_CURVE ( 'NONE', #45, #83, #131, .T. ) ;
#185 = AXIS2_PLACEMENT_3D ( 'NONE', #72, #110, #135 ) ;
#186 = LINE ( 'NONE', #3, #62 ) ;
#187 = CYLINDRICAL_SURFACE ( 'NONE', #205, 10.00000000000000000 ) ;
#188 = PLANE ( 'NONE',  #51 ) ;
#189 = CARTESIAN_POINT ( 'NONE',  ( 10.00000000000000000, 1.224646799147353256E-15, 7.000000000000000000 ) ) ;
#190 = DIRECTION ( 'NONE',  ( 0.000000000000000000, 0.000000000000000000, 1.000000000000000000 ) ) ;
#191 = DIRECTION ( 'NONE',  ( 1.000000000000000000, 0.000000000000000000, 0.000000000000000000 ) ) ;
#192 = CARTESIAN_POINT ( 'NONE',  ( 0.000000000000000000, 0.000000000000000000, 7.000000000000000000 ) ) ;
#193 = LOCAL_TIME ( 9, 41, 10.00000000000000000, #231 ) ;
#194 = PERSON_AND_ORGANIZATION_ROLE ( 'design_supplier' ) ;
#196 = ADVANCED_FACE ( 'NONE', ( #31 ), #94, .T. ) ;
#195 = DIRECTION ( 'NONE',  ( -0.000000000000000000, -0.000000000000000000, -1.000000000000000000 ) ) ;
#197 = ORIENTED_EDGE ( 'NONE', *, *, #166, .T. ) ;
#198 =( GEOMETRIC_REPRESENTATION_CONTEXT ( 3 ) GLOBAL_UNCERTAINTY_ASSIGNED_CONTEXT ( ( #50 ) ) GLOBAL_UNIT_ASSIGNED_CONTEXT ( ( #121, #117, #172 ) ) REPRESENTATION_CONTEXT ( 'NONE', 'WORKASPACE' ) );
#199 = DATE_AND_TIME ( #78, #193 ) ;
#200 = ORIENTED_EDGE ( 'NONE', *, *, #61, .T. ) ;
#201 = PERSON_AND_ORGANIZATION ( #97, #14 ) ;
#202 = ORIENTED_EDGE ( 'NONE', *, *, #12, .F. ) ;
#203 = DATE_AND_TIME ( #125, #149 ) ;
#204 = ORIENTED_EDGE ( 'NONE', *, *, #57, .F. ) ;
#205 = AXIS2_PLACEMENT_3D ( 'NONE', #67, #4, #164 ) ;
#206 = AXIS2_PLACEMENT_3D ( 'NONE', #76, #134, #155 ) ;
#207 = AXIS2_PLACEMENT_3D ( 'NONE', #192, #133, #13 ) ;
#208 = CARTESIAN_POINT ( 'NONE',  ( 0.000000000000000000, 0.000000000000000000, 250.0000000000000000 ) ) ;
#209 = FACE_OUTER_BOUND ( 'NONE', #143, .T. ) ;
#210 = DIRECTION ( 'NONE',  ( 1.000000000000000000, 0.000000000000000000, 0.000000000000000000 ) ) ;
#211 = CARTESIAN_POINT ( 'NONE',  ( -14.00000000000000000, 0.000000000000000000, 7.000000000000000000 ) ) ;
#212 = CYLINDRICAL_SURFACE ( 'NONE', #206, 14.00000000000000000 ) ;
#213 = EDGE_CURVE ( 'NONE', #254, #217, #74, .T. ) ;
#214 = COORDINATED_UNIVERSAL_TIME_OFFSET ( 1, 0, .AHEAD. ) ;
#215 = ORIENTED_EDGE ( 'NONE', *, *, #107, .F. ) ;
#216 = VECTOR ( 'NONE', #195, 1000.000000000000000 ) ;
#217 = VERTEX_POINT ( 'NONE', #75 ) ;
#218 = EDGE_LOOP ( 'NONE', ( #64, #82, #108, #202 ) ) ;
#219 = CARTESIAN_POINT ( 'NONE',  ( 0.000000000000000000, 0.000000000000000000, 250.0000000000000000 ) ) ;
#220 = ADVANCED_FACE ( 'NONE', ( #171, #113 ), #26, .T. ) ;
#221 = AXIS2_PLACEMENT_3D ( 'NONE', #219, #86, #163 ) ;
#222 = VERTEX_POINT ( 'NONE', #96 ) ;
#223 = CARTESIAN_POINT ( 'NONE',  ( 14.00000000000000000, 1.714505518806294638E-15, 7.000000000000000000 ) ) ;
#224 = DIRECTION ( 'NONE',  ( -0.000000000000000000, -0.000000000000000000, -1.000000000000000000 ) ) ;
#225 = DIRECTION ( 'NONE',  ( 1.000000000000000000, 0.000000000000000000, 0.000000000000000000 ) ) ;
#226 = APPROVAL_PERSON_ORGANIZATION ( #201, #87, #173 ) ;
#227 = LINE ( 'NONE', #211, #79 ) ;
#228 = APPROVAL_STATUS ( 'not_yet_approved' ) ;
#229 = CC_DESIGN_PERSON_AND_ORGANIZATION_ASSIGNMENT ( #157, #250, ( #47 ) ) ;
#230 = AXIS2_PLACEMENT_3D ( 'NONE', #68, #10, #191 ) ;
#231 = COORDINATED_UNIVERSAL_TIME_OFFSET ( 1, 0, .AHEAD. ) ;
#232 = DATE_AND_TIME ( #17, #175 ) ;
#233 = ADVANCED_FACE ( 'NONE', ( #247 ), #188, .F. ) ;
#234 = COORDINATED_UNIVERSAL_TIME_OFFSET ( 1, 0, .AHEAD. ) ;
#235 = AXIS2_PLACEMENT_3D ( 'NONE', #49, #154, #53 ) ;
#236 = ORIENTED_EDGE ( 'NONE', *, *, #22, .F. ) ;
#237 = CC_DESIGN_PERSON_AND_ORGANIZATION_ASSIGNMENT ( #115, #138, ( #106 ) ) ;
#238 = MANIFOLD_SOLID_BREP ( 'Pøidat vysunutím3', #55 ) ;
#239 = ORIENTED_EDGE ( 'NONE', *, *, #174, .T. ) ;
#240 = CARTESIAN_POINT ( 'NONE',  ( -10.00000000000000000, 0.000000000000000000, 7.000000000000000000 ) ) ;
#241 = CARTESIAN_POINT ( 'NONE',  ( 0.000000000000000000, 0.000000000000000000, 7.000000000000000000 ) ) ;
#242 = CYLINDRICAL_SURFACE ( 'NONE', #73, 10.00000000000000000 ) ;
#243 = FACE_OUTER_BOUND ( 'NONE', #162, .T. ) ;
#244 = CARTESIAN_POINT ( 'NONE',  ( -14.00000000000000000, 0.000000000000000000, 0.000000000000000000 ) ) ;
#245 = AXIS2_PLACEMENT_3D ( 'NONE', #169, #48, #7 ) ;
#246 = CIRCLE ( 'NONE', #65, 14.00000000000000000 ) ;
#247 = FACE_OUTER_BOUND ( 'NONE', #21, .T. ) ;
#248 = APPLICATION_PROTOCOL_DEFINITION ( 'international standard', 'config_control_design', 1994, #85 ) ;
#249 = COORDINATED_UNIVERSAL_TIME_OFFSET ( 1, 0, .AHEAD. ) ;
#250 = PERSON_AND_ORGANIZATION_ROLE ( 'creator' ) ;
#251 = DIRECTION ( 'NONE',  ( -0.000000000000000000, -0.000000000000000000, -1.000000000000000000 ) ) ;
#252 = DATE_AND_TIME ( #100, #145 ) ;
#253 = ORIENTED_EDGE ( 'NONE', *, *, #22, .T. ) ;
#254 = VERTEX_POINT ( 'NONE', #223 ) ;
#255 = EDGE_CURVE ( 'NONE', #254, #183, #181, .T. ) ;
ENDSEC;
END-ISO-10303-21;
