ISO-10303-21;
HEADER;
FILE_DESCRIPTION (( 'STEP AP203' ),
    '1' );
FILE_NAME ('0a3f.STEP',
    '2023-02-13T15:15:24',
    ( '' ),
    ( '' ),
    'SwSTEP 2.0',
    'SolidWorks 2019',
    '' );
FILE_SCHEMA (( 'CONFIG_CONTROL_DESIGN' ));
ENDSEC;

DATA;
#1 = CC_DESIGN_PERSON_AND_ORGANIZATION_ASSIGNMENT ( #245, #145, ( #188 ) ) ;
#2 = ADVANCED_FACE ( 'NONE', ( #110, #195 ), #61, .T. ) ;
#3 = CARTESIAN_POINT ( 'NONE',  ( 0.000000000000000000, 0.000000000000000000, 5.000000000000000000 ) ) ;
#4 = CARTESIAN_POINT ( 'NONE',  ( 0.000000000000000000, 0.000000000000000000, 125.0000000000000000 ) ) ;
#5 = APPROVAL_PERSON_ORGANIZATION ( #125, #242, #203 ) ;
#6 = PRODUCT ( '0a3f', '0a3f', '', ( #148 ) ) ;
#7 = CARTESIAN_POINT ( 'NONE',  ( 3.500000000000000000, 4.286263797015736595E-16, 125.0000000000000000 ) ) ;
#8 = CARTESIAN_POINT ( 'NONE',  ( -6.000000000000000888, 0.000000000000000000, 5.000000000000000000 ) ) ;
#9 = DIRECTION ( 'NONE',  ( 1.000000000000000000, 0.000000000000000000, 0.000000000000000000 ) ) ;
#10 = CARTESIAN_POINT ( 'NONE',  ( -3.500000000000000000, 0.000000000000000000, 125.0000000000000000 ) ) ;
#11 = DATE_TIME_ROLE ( 'creation_date' ) ;
#12 = APPROVAL_STATUS ( 'not_yet_approved' ) ;
#13 = CIRCLE ( 'NONE', #47, 3.500000000000000000 ) ;
#14 = DESIGN_CONTEXT ( 'detailed design', #135, 'design' ) ;
#15 = DIRECTION ( 'NONE',  ( -0.000000000000000000, -0.000000000000000000, -1.000000000000000000 ) ) ;
#16 = APPROVAL ( #98, 'NEURÈENÝ' ) ;
#17 = DIRECTION ( 'NONE',  ( 0.000000000000000000, 0.000000000000000000, 1.000000000000000000 ) ) ;
#18 = EDGE_LOOP ( 'NONE', ( #212, #174 ) ) ;
#19 = CIRCLE ( 'NONE', #158, 6.000000000000000888 ) ;
#20 = DIRECTION ( 'NONE',  ( 0.000000000000000000, 0.000000000000000000, 1.000000000000000000 ) ) ;
#21 = VERTEX_POINT ( 'NONE', #129 ) ;
#22 = DIRECTION ( 'NONE',  ( 1.000000000000000000, 0.000000000000000000, 0.000000000000000000 ) ) ;
#23 = DIRECTION ( 'NONE',  ( 1.000000000000000000, 0.000000000000000000, -0.000000000000000000 ) ) ;
#24 = APPROVAL_PERSON_ORGANIZATION ( #150, #104, #208 ) ;
#25 = PRODUCT_DEFINITION_SHAPE ( 'NONE', 'NONE',  #152 ) ;
#26 = DIRECTION ( 'NONE',  ( -0.000000000000000000, -0.000000000000000000, -1.000000000000000000 ) ) ;
#27 = CARTESIAN_POINT ( 'NONE',  ( 3.500000000000000000, 4.286263797015736595E-16, 5.000000000000000000 ) ) ;
#28 = COORDINATED_UNIVERSAL_TIME_OFFSET ( 1, 0, .AHEAD. ) ;
#29 = AXIS2_PLACEMENT_3D ( 'NONE', #190, #136, #96 ) ;
#30 = CYLINDRICAL_SURFACE ( 'NONE', #31, 6.000000000000000888 ) ;
#31 = AXIS2_PLACEMENT_3D ( 'NONE', #163, #84, #87 ) ;
#32 = FACE_OUTER_BOUND ( 'NONE', #114, .T. ) ;
#33 = DATE_AND_TIME ( #227, #147 ) ;
#34 = FACE_OUTER_BOUND ( 'NONE', #127, .T. ) ;
#35 = ORIENTED_EDGE ( 'NONE', *, *, #63, .T. ) ;
#36 = CALENDAR_DATE ( 2023, 13, 2 ) ;
#37 = PERSON ( 'NEURÈENÝ', 'NEURÈENÝ', 'NEURÈENÝ', ('NEURÈENÝ'), ('NEURÈENÝ'), ('NEURÈENÝ') ) ;
#38 = ORIENTED_EDGE ( 'NONE', *, *, #168, .T. ) ;
#39 = CARTESIAN_POINT ( 'NONE',  ( 0.000000000000000000, 0.000000000000000000, 0.000000000000000000 ) ) ;
#40 = PERSON_AND_ORGANIZATION ( #37, #111 ) ;
#41 = EDGE_LOOP ( 'NONE', ( #154, #151 ) ) ;
#42 = PRODUCT_DEFINITION_FORMATION_WITH_SPECIFIED_SOURCE ( 'LIBOVOLNÝ', '', #6, .NOT_KNOWN. ) ;
#43 = AXIS2_PLACEMENT_3D ( 'NONE', #216, #46, #22 ) ;
#44 = COORDINATED_UNIVERSAL_TIME_OFFSET ( 1, 0, .AHEAD. ) ;
#45 = ORIENTED_EDGE ( 'NONE', *, *, #176, .T. ) ;
#46 = DIRECTION ( 'NONE',  ( 0.000000000000000000, 0.000000000000000000, 1.000000000000000000 ) ) ;
#47 = AXIS2_PLACEMENT_3D ( 'NONE', #239, #241, #142 ) ;
#48 = CIRCLE ( 'NONE', #43, 3.500000000000000000 ) ;
#49 = CARTESIAN_POINT ( 'NONE',  ( 3.500000000000000000, 4.286263797015736595E-16, 125.0000000000000000 ) ) ;
#50 = LINE ( 'NONE', #10, #157 ) ;
#51 = APPROVAL_STATUS ( 'not_yet_approved' ) ;
#52 = CIRCLE ( 'NONE', #29, 3.500000000000000000 ) ;
#53 = CC_DESIGN_APPROVAL ( #104, ( #42 ) ) ;
#54 = COORDINATED_UNIVERSAL_TIME_OFFSET ( 1, 0, .AHEAD. ) ;
#55 = EDGE_LOOP ( 'NONE', ( #229, #108, #99, #97 ) ) ;
#56 = PERSON_AND_ORGANIZATION_ROLE ( 'design_owner' ) ;
#57 = ORIENTED_EDGE ( 'NONE', *, *, #243, .T. ) ;
#58 = PLANE ( 'NONE',  #180 ) ;
#59 = DATE_AND_TIME ( #171, #123 ) ;
#60 = ORIENTED_EDGE ( 'NONE', *, *, #120, .F. ) ;
#61 = PLANE ( 'NONE',  #103 ) ;
#62 = COORDINATED_UNIVERSAL_TIME_OFFSET ( 1, 0, .AHEAD. ) ;
#63 = EDGE_CURVE ( 'NONE', #21, #155, #52, .T. ) ;
#64 = CC_DESIGN_PERSON_AND_ORGANIZATION_ASSIGNMENT ( #67, #143, ( #42 ) ) ;
#65 = LINE ( 'NONE', #49, #166 ) ;
#66 = CARTESIAN_POINT ( 'NONE',  ( 0.000000000000000000, 0.000000000000000000, 5.000000000000000000 ) ) ;
#67 = PERSON_AND_ORGANIZATION ( #37, #111 ) ;
#68 = DIRECTION ( 'NONE',  ( 1.000000000000000000, 0.000000000000000000, 0.000000000000000000 ) ) ;
#69 = DIRECTION ( 'NONE',  ( 0.000000000000000000, 0.000000000000000000, 1.000000000000000000 ) ) ;
#70 = PERSON_AND_ORGANIZATION_ROLE ( 'creator' ) ;
#71 =( NAMED_UNIT ( * ) SI_UNIT ( $, .STERADIAN. ) SOLID_ANGLE_UNIT ( ) );
#72 = DIRECTION ( 'NONE',  ( 1.000000000000000000, 0.000000000000000000, -0.000000000000000000 ) ) ;
#73 = APPROVAL_PERSON_ORGANIZATION ( #40, #16, #213 ) ;
#74 = DIRECTION ( 'NONE',  ( 1.000000000000000000, 0.000000000000000000, -0.000000000000000000 ) ) ;
#75 = ORIENTED_EDGE ( 'NONE', *, *, #120, .T. ) ;
#76 = APPROVAL_DATE_TIME ( #59, #16 ) ;
#77 = FACE_OUTER_BOUND ( 'NONE', #55, .T. ) ;
#78 = LOCAL_TIME ( 16, 15, 24.00000000000000000, #44 ) ;
#79 = DIRECTION ( 'NONE',  ( -0.000000000000000000, -0.000000000000000000, -1.000000000000000000 ) ) ;
#80 = ADVANCED_FACE ( 'NONE', ( #77 ), #209, .T. ) ;
#81 = AXIS2_PLACEMENT_3D ( 'NONE', #187, #105, #221 ) ;
#82 = APPLICATION_CONTEXT ( 'configuration controlled 3d designs of mechanical parts and assemblies' ) ;
#83 = LINE ( 'NONE', #198, #117 ) ;
#84 = DIRECTION ( 'NONE',  ( -0.000000000000000000, -0.000000000000000000, -1.000000000000000000 ) ) ;
#85 = CARTESIAN_POINT ( 'NONE',  ( 6.000000000000000888, 7.347880794884120722E-16, 5.000000000000000000 ) ) ;
#86 = APPROVAL_DATE_TIME ( #33, #242 ) ;
#87 = DIRECTION ( 'NONE',  ( -1.000000000000000000, 0.000000000000000000, 0.000000000000000000 ) ) ;
#88 = PRODUCT_RELATED_PRODUCT_CATEGORY ( 'detail', '', ( #6 ) ) ;
#89 = SECURITY_CLASSIFICATION_LEVEL ( 'unclassified' ) ;
#90 = DIRECTION ( 'NONE',  ( 0.000000000000000000, 0.000000000000000000, 1.000000000000000000 ) ) ;
#91 = DIRECTION ( 'NONE',  ( -0.000000000000000000, -0.000000000000000000, -1.000000000000000000 ) ) ;
#92 = ADVANCED_FACE ( 'NONE', ( #194 ), #109, .T. ) ;
#93 = CC_DESIGN_APPROVAL ( #16, ( #188 ) ) ;
#94 = PERSON_AND_ORGANIZATION ( #37, #111 ) ;
#95 = ORIENTED_EDGE ( 'NONE', *, *, #169, .T. ) ;
#96 = DIRECTION ( 'NONE',  ( 1.000000000000000000, 0.000000000000000000, 0.000000000000000000 ) ) ;
#97 = ORIENTED_EDGE ( 'NONE', *, *, #222, .F. ) ;
#98 = APPROVAL_STATUS ( 'not_yet_approved' ) ;
#99 = ORIENTED_EDGE ( 'NONE', *, *, #206, .T. ) ;
#100 = VERTEX_POINT ( 'NONE', #211 ) ;
#101 = CLOSED_SHELL ( 'NONE', ( #80, #196, #182, #2, #115, #177, #92 ) ) ;
#102 = AXIS2_PLACEMENT_3D ( 'NONE', #66, #223, #106 ) ;
#103 = AXIS2_PLACEMENT_3D ( 'NONE', #3, #20, #72 ) ;
#104 = APPROVAL ( #12, 'NEURÈENÝ' ) ;
#105 = DIRECTION ( 'NONE',  ( 0.000000000000000000, 0.000000000000000000, 1.000000000000000000 ) ) ;
#106 = DIRECTION ( 'NONE',  ( -1.000000000000000000, 0.000000000000000000, 0.000000000000000000 ) ) ;
#107 = COORDINATED_UNIVERSAL_TIME_OFFSET ( 1, 0, .AHEAD. ) ;
#108 = ORIENTED_EDGE ( 'NONE', *, *, #218, .T. ) ;
#109 = PLANE ( 'NONE',  #225 ) ;
#110 = FACE_BOUND ( 'NONE', #18, .T. ) ;
#111 = ORGANIZATION ( 'NEURÈENÝ', 'NEURÈENÝ', '' ) ;
#112 = DIRECTION ( 'NONE',  ( -1.000000000000000000, 0.000000000000000000, 0.000000000000000000 ) ) ;
#113 = SHAPE_DEFINITION_REPRESENTATION ( #25, #197 ) ;
#114 = EDGE_LOOP ( 'NONE', ( #172, #215, #228, #60 ) ) ;
#115 = ADVANCED_FACE ( 'NONE', ( #153 ), #58, .F. ) ;
#116 = EDGE_CURVE ( 'NONE', #100, #255, #230, .T. ) ;
#117 = VECTOR ( 'NONE', #26, 1000.000000000000000 ) ;
#118 = LOCAL_TIME ( 16, 15, 24.00000000000000000, #28 ) ;
#119 = AXIS2_PLACEMENT_3D ( 'NONE', #4, #236, #68 ) ;
#120 = EDGE_CURVE ( 'NONE', #233, #255, #178, .T. ) ;
#121 = ORIENTED_EDGE ( 'NONE', *, *, #189, .F. ) ;
#122 = AXIS2_PLACEMENT_3D ( 'NONE', #231, #15, #112 ) ;
#123 = LOCAL_TIME ( 16, 15, 24.00000000000000000, #62 ) ;
#124 = CARTESIAN_POINT ( 'NONE',  ( 0.000000000000000000, 0.000000000000000000, 5.000000000000000000 ) ) ;
#125 = PERSON_AND_ORGANIZATION ( #37, #111 ) ;
#126 = CALENDAR_DATE ( 2023, 13, 2 ) ;
#127 = EDGE_LOOP ( 'NONE', ( #252, #121, #75, #45 ) ) ;
#128 = APPLICATION_PROTOCOL_DEFINITION ( 'international standard', 'config_control_design', 1994, #135 ) ;
#129 = CARTESIAN_POINT ( 'NONE',  ( -3.500000000000000000, 0.000000000000000000, 125.0000000000000000 ) ) ;
#130 = EDGE_CURVE ( 'NONE', #173, #100, #83, .T. ) ;
#131 = ORIENTED_EDGE ( 'NONE', *, *, #189, .T. ) ;
#132 = DATE_TIME_ROLE ( 'classification_date' ) ;
#133 = VERTEX_POINT ( 'NONE', #183 ) ;
#134 = VECTOR ( 'NONE', #79, 1000.000000000000000 ) ;
#135 = APPLICATION_CONTEXT ( 'configuration controlled 3d designs of mechanical parts and assemblies' ) ;
#136 = DIRECTION ( 'NONE',  ( 0.000000000000000000, 0.000000000000000000, 1.000000000000000000 ) ) ;
#137 = AXIS2_PLACEMENT_3D ( 'NONE', #124, #90, #165 ) ;
#138 = AXIS2_PLACEMENT_3D ( 'NONE', #204, #144, #200 ) ;
#139 = CARTESIAN_POINT ( 'NONE',  ( 0.000000000000000000, 0.000000000000000000, 0.000000000000000000 ) ) ;
#140 = CC_DESIGN_PERSON_AND_ORGANIZATION_ASSIGNMENT ( #251, #56, ( #6 ) ) ;
#141 = CC_DESIGN_DATE_AND_TIME_ASSIGNMENT ( #235, #132, ( #188 ) ) ;
#142 = DIRECTION ( 'NONE',  ( 1.000000000000000000, 0.000000000000000000, 0.000000000000000000 ) ) ;
#143 = PERSON_AND_ORGANIZATION_ROLE ( 'design_supplier' ) ;
#144 = DIRECTION ( 'NONE',  ( -0.000000000000000000, -0.000000000000000000, -1.000000000000000000 ) ) ;
#145 = PERSON_AND_ORGANIZATION_ROLE ( 'classification_officer' ) ;
#146 = DIRECTION ( 'NONE',  ( 1.000000000000000000, 0.000000000000000000, 0.000000000000000000 ) ) ;
#147 = LOCAL_TIME ( 16, 15, 24.00000000000000000, #107 ) ;
#148 = MECHANICAL_CONTEXT ( 'NONE', #82, 'mechanical' ) ;
#149 = DIRECTION ( 'NONE',  ( 0.000000000000000000, 0.000000000000000000, 1.000000000000000000 ) ) ;
#150 = PERSON_AND_ORGANIZATION ( #37, #111 ) ;
#151 = ORIENTED_EDGE ( 'NONE', *, *, #116, .F. ) ;
#152 = PRODUCT_DEFINITION ( 'NEZNÁMÝ', '', #42, #14 ) ;
#153 = FACE_OUTER_BOUND ( 'NONE', #41, .T. ) ;
#154 = ORIENTED_EDGE ( 'NONE', *, *, #176, .F. ) ;
#155 = VERTEX_POINT ( 'NONE', #7 ) ;
#156 = CIRCLE ( 'NONE', #137, 6.000000000000000888 ) ;
#157 = VECTOR ( 'NONE', #185, 1000.000000000000000 ) ;
#158 = AXIS2_PLACEMENT_3D ( 'NONE', #139, #149, #146 ) ;
#159 = CC_DESIGN_APPROVAL ( #242, ( #152 ) ) ;
#160 = DIRECTION ( 'NONE',  ( 0.000000000000000000, 0.000000000000000000, 1.000000000000000000 ) ) ;
#161 = CC_DESIGN_DATE_AND_TIME_ASSIGNMENT ( #205, #11, ( #152 ) ) ;
#162 = CC_DESIGN_PERSON_AND_ORGANIZATION_ASSIGNMENT ( #94, #244, ( #42 ) ) ;
#163 = CARTESIAN_POINT ( 'NONE',  ( 0.000000000000000000, 0.000000000000000000, 5.000000000000000000 ) ) ;
#164 = DATE_AND_TIME ( #36, #179 ) ;
#165 = DIRECTION ( 'NONE',  ( 1.000000000000000000, 0.000000000000000000, 0.000000000000000000 ) ) ;
#166 = VECTOR ( 'NONE', #91, 1000.000000000000000 ) ;
#167 =( NAMED_UNIT ( * ) PLANE_ANGLE_UNIT ( ) SI_UNIT ( $, .RADIAN. ) );
#168 = EDGE_CURVE ( 'NONE', #133, #170, #48, .T. ) ;
#169 = EDGE_CURVE ( 'NONE', #155, #21, #214, .T. ) ;
#170 = VERTEX_POINT ( 'NONE', #27 ) ;
#171 = CALENDAR_DATE ( 2023, 13, 2 ) ;
#172 = ORIENTED_EDGE ( 'NONE', *, *, #243, .F. ) ;
#173 = VERTEX_POINT ( 'NONE', #85 ) ;
#174 = ORIENTED_EDGE ( 'NONE', *, *, #206, .F. ) ;
#175 = ORIENTED_EDGE ( 'NONE', *, *, #63, .F. ) ;
#176 = EDGE_CURVE ( 'NONE', #255, #100, #19, .T. ) ;
#177 = ADVANCED_FACE ( 'NONE', ( #248 ), #220, .T. ) ;
#178 = LINE ( 'NONE', #238, #134 ) ;
#179 = LOCAL_TIME ( 16, 15, 24.00000000000000000, #54 ) ;
#180 = AXIS2_PLACEMENT_3D ( 'NONE', #39, #160, #23 ) ;
#181 = DIRECTION ( 'NONE',  ( 1.000000000000000000, 0.000000000000000000, 0.000000000000000000 ) ) ;
#182 = ADVANCED_FACE ( 'NONE', ( #34 ), #224, .T. ) ;
#183 = CARTESIAN_POINT ( 'NONE',  ( -3.500000000000000000, 0.000000000000000000, 5.000000000000000000 ) ) ;
#184 = APPROVAL_DATE_TIME ( #164, #104 ) ;
#185 = DIRECTION ( 'NONE',  ( -0.000000000000000000, -0.000000000000000000, -1.000000000000000000 ) ) ;
#186 = PERSON_AND_ORGANIZATION ( #37, #111 ) ;
#187 = CARTESIAN_POINT ( 'NONE',  ( 0.000000000000000000, 0.000000000000000000, 5.000000000000000000 ) ) ;
#188 = SECURITY_CLASSIFICATION ( '', '', #89 ) ;
#189 = EDGE_CURVE ( 'NONE', #233, #173, #249, .T. ) ;
#190 = CARTESIAN_POINT ( 'NONE',  ( 0.000000000000000000, 0.000000000000000000, 125.0000000000000000 ) ) ;
#191 = CARTESIAN_POINT ( 'NONE',  ( 0.000000000000000000, 0.000000000000000000, 125.0000000000000000 ) ) ;
#192 = EDGE_LOOP ( 'NONE', ( #131, #57 ) ) ;
#193 =( GEOMETRIC_REPRESENTATION_CONTEXT ( 3 ) GLOBAL_UNCERTAINTY_ASSIGNED_CONTEXT ( ( #226 ) ) GLOBAL_UNIT_ASSIGNED_CONTEXT ( ( #202, #167, #71 ) ) REPRESENTATION_CONTEXT ( 'NONE', 'WORKASPACE' ) );
#194 = FACE_OUTER_BOUND ( 'NONE', #253, .T. ) ;
#195 = FACE_OUTER_BOUND ( 'NONE', #192, .T. ) ;
#196 = ADVANCED_FACE ( 'NONE', ( #32 ), #30, .T. ) ;
#197 = ADVANCED_BREP_SHAPE_REPRESENTATION ( '0a3f', ( #240, #234 ), #193 ) ;
#198 = CARTESIAN_POINT ( 'NONE',  ( 6.000000000000000888, 7.347880794884120722E-16, 5.000000000000000000 ) ) ;
#199 = CC_DESIGN_SECURITY_CLASSIFICATION ( #188, ( #42 ) ) ;
#200 = DIRECTION ( 'NONE',  ( -1.000000000000000000, 0.000000000000000000, 0.000000000000000000 ) ) ;
#201 = CARTESIAN_POINT ( 'NONE',  ( 0.000000000000000000, 0.000000000000000000, 0.000000000000000000 ) ) ;
#202 =( LENGTH_UNIT ( ) NAMED_UNIT ( * ) SI_UNIT ( .MILLI., .METRE. ) );
#203 = APPROVAL_ROLE ( '' ) ;
#204 = CARTESIAN_POINT ( 'NONE',  ( 0.000000000000000000, 0.000000000000000000, 125.0000000000000000 ) ) ;
#205 = DATE_AND_TIME ( #126, #118 ) ;
#206 = EDGE_CURVE ( 'NONE', #170, #133, #13, .T. ) ;
#207 = ORIENTED_EDGE ( 'NONE', *, *, #222, .T. ) ;
#208 = APPROVAL_ROLE ( '' ) ;
#209 = CYLINDRICAL_SURFACE ( 'NONE', #122, 3.500000000000000000 ) ;
#210 = CALENDAR_DATE ( 2023, 13, 2 ) ;
#211 = CARTESIAN_POINT ( 'NONE',  ( 6.000000000000000888, 7.347880794884120722E-16, 0.000000000000000000 ) ) ;
#212 = ORIENTED_EDGE ( 'NONE', *, *, #168, .F. ) ;
#213 = APPROVAL_ROLE ( '' ) ;
#214 = CIRCLE ( 'NONE', #119, 3.500000000000000000 ) ;
#215 = ORIENTED_EDGE ( 'NONE', *, *, #130, .T. ) ;
#216 = CARTESIAN_POINT ( 'NONE',  ( 0.000000000000000000, 0.000000000000000000, 5.000000000000000000 ) ) ;
#217 = CC_DESIGN_PERSON_AND_ORGANIZATION_ASSIGNMENT ( #186, #70, ( #152 ) ) ;
#218 = EDGE_CURVE ( 'NONE', #155, #170, #65, .T. ) ;
#219 = DIRECTION ( 'NONE',  ( 0.000000000000000000, 0.000000000000000000, 1.000000000000000000 ) ) ;
#220 = CYLINDRICAL_SURFACE ( 'NONE', #138, 3.500000000000000000 ) ;
#221 = DIRECTION ( 'NONE',  ( 1.000000000000000000, 0.000000000000000000, 0.000000000000000000 ) ) ;
#222 = EDGE_CURVE ( 'NONE', #21, #133, #50, .T. ) ;
#223 = DIRECTION ( 'NONE',  ( -0.000000000000000000, -0.000000000000000000, -1.000000000000000000 ) ) ;
#224 = CYLINDRICAL_SURFACE ( 'NONE', #102, 6.000000000000000888 ) ;
#225 = AXIS2_PLACEMENT_3D ( 'NONE', #191, #17, #74 ) ;
#226 = UNCERTAINTY_MEASURE_WITH_UNIT (LENGTH_MEASURE( 1.000000000000000082E-05 ), #202, 'distance_accuracy_value', 'NONE');
#227 = CALENDAR_DATE ( 2023, 13, 2 ) ;
#228 = ORIENTED_EDGE ( 'NONE', *, *, #116, .T. ) ;
#229 = ORIENTED_EDGE ( 'NONE', *, *, #169, .F. ) ;
#230 = CIRCLE ( 'NONE', #250, 6.000000000000000888 ) ;
#231 = CARTESIAN_POINT ( 'NONE',  ( 0.000000000000000000, 0.000000000000000000, 125.0000000000000000 ) ) ;
#232 = EDGE_LOOP ( 'NONE', ( #254, #175, #207, #38 ) ) ;
#233 = VERTEX_POINT ( 'NONE', #8 ) ;
#234 = AXIS2_PLACEMENT_3D ( 'NONE', #201, #69, #9 ) ;
#235 = DATE_AND_TIME ( #210, #78 ) ;
#236 = DIRECTION ( 'NONE',  ( 0.000000000000000000, 0.000000000000000000, 1.000000000000000000 ) ) ;
#237 = CARTESIAN_POINT ( 'NONE',  ( 0.000000000000000000, 0.000000000000000000, 0.000000000000000000 ) ) ;
#238 = CARTESIAN_POINT ( 'NONE',  ( -6.000000000000000888, 0.000000000000000000, 5.000000000000000000 ) ) ;
#239 = CARTESIAN_POINT ( 'NONE',  ( 0.000000000000000000, 0.000000000000000000, 5.000000000000000000 ) ) ;
#240 = MANIFOLD_SOLID_BREP ( 'Pøidat vysunutím3', #101 ) ;
#241 = DIRECTION ( 'NONE',  ( 0.000000000000000000, 0.000000000000000000, 1.000000000000000000 ) ) ;
#242 = APPROVAL ( #51, 'NEURÈENÝ' ) ;
#243 = EDGE_CURVE ( 'NONE', #173, #233, #156, .T. ) ;
#244 = PERSON_AND_ORGANIZATION_ROLE ( 'creator' ) ;
#245 = PERSON_AND_ORGANIZATION ( #37, #111 ) ;
#246 = CARTESIAN_POINT ( 'NONE',  ( -6.000000000000000888, 0.000000000000000000, 0.000000000000000000 ) ) ;
#247 = APPLICATION_PROTOCOL_DEFINITION ( 'international standard', 'config_control_design', 1994, #82 ) ;
#248 = FACE_OUTER_BOUND ( 'NONE', #232, .T. ) ;
#249 = CIRCLE ( 'NONE', #81, 6.000000000000000888 ) ;
#250 = AXIS2_PLACEMENT_3D ( 'NONE', #237, #219, #181 ) ;
#251 = PERSON_AND_ORGANIZATION ( #37, #111 ) ;
#252 = ORIENTED_EDGE ( 'NONE', *, *, #130, .F. ) ;
#253 = EDGE_LOOP ( 'NONE', ( #35, #95 ) ) ;
#254 = ORIENTED_EDGE ( 'NONE', *, *, #218, .F. ) ;
#255 = VERTEX_POINT ( 'NONE', #246 ) ;
ENDSEC;
END-ISO-10303-21;
