ISO-10303-21;
HEADER;
FILE_DESCRIPTION (( 'STEP AP203' ),
    '1' );
FILE_NAME ('c8cf.STEP',
    '2023-02-13T11:30:23',
    ( '' ),
    ( '' ),
    'SwSTEP 2.0',
    'SolidWorks 2019',
    '' );
FILE_SCHEMA (( 'CONFIG_CONTROL_DESIGN' ));
ENDSEC;

DATA;
#1 = AXIS2_PLACEMENT_3D ( 'NONE', #123, #186, #166 ) ;
#2 = DIRECTION ( 'NONE',  ( -1.000000000000000000, 0.000000000000000000, 0.000000000000000000 ) ) ;
#3 = FACE_OUTER_BOUND ( 'NONE', #112, .T. ) ;
#4 = CIRCLE ( 'NONE', #45, 6.000000000000000888 ) ;
#5 = CARTESIAN_POINT ( 'NONE',  ( 9.000000000000000000, 1.102182119232617517E-15, 6.500000000000000000 ) ) ;
#6 = EDGE_CURVE ( 'NONE', #213, #68, #41, .T. ) ;
#7 = DIRECTION ( 'NONE',  ( 0.000000000000000000, 0.000000000000000000, 1.000000000000000000 ) ) ;
#8 = ORIENTED_EDGE ( 'NONE', *, *, #169, .F. ) ;
#9 = CC_DESIGN_PERSON_AND_ORGANIZATION_ASSIGNMENT ( #211, #155, ( #113 ) ) ;
#10 = DIRECTION ( 'NONE',  ( 0.000000000000000000, 0.000000000000000000, 1.000000000000000000 ) ) ;
#11 = DIRECTION ( 'NONE',  ( -0.000000000000000000, -0.000000000000000000, -1.000000000000000000 ) ) ;
#12 = PERSON_AND_ORGANIZATION_ROLE ( 'creator' ) ;
#13 = DATE_AND_TIME ( #103, #238 ) ;
#14 = ADVANCED_FACE ( 'NONE', ( #17 ), #40, .T. ) ;
#15 = ORIENTED_EDGE ( 'NONE', *, *, #198, .T. ) ;
#16 = ORIENTED_EDGE ( 'NONE', *, *, #127, .F. ) ;
#17 = FACE_OUTER_BOUND ( 'NONE', #56, .T. ) ;
#18 = ADVANCED_FACE ( 'NONE', ( #177 ), #37, .T. ) ;
#19 = AXIS2_PLACEMENT_3D ( 'NONE', #66, #99, #165 ) ;
#20 = CARTESIAN_POINT ( 'NONE',  ( 0.000000000000000000, 0.000000000000000000, 0.000000000000000000 ) ) ;
#21 = ORIENTED_EDGE ( 'NONE', *, *, #152, .T. ) ;
#22 = ADVANCED_FACE ( 'NONE', ( #3 ), #204, .T. ) ;
#23 = DIRECTION ( 'NONE',  ( -1.000000000000000000, 0.000000000000000000, 0.000000000000000000 ) ) ;
#24 = CC_DESIGN_SECURITY_CLASSIFICATION ( #180, ( #113 ) ) ;
#25 = FACE_OUTER_BOUND ( 'NONE', #31, .T. ) ;
#26 =( LENGTH_UNIT ( ) NAMED_UNIT ( * ) SI_UNIT ( .MILLI., .METRE. ) );
#27 = CARTESIAN_POINT ( 'NONE',  ( 0.000000000000000000, 0.000000000000000000, 1200.000000000000000 ) ) ;
#28 = DIRECTION ( 'NONE',  ( 1.000000000000000000, 0.000000000000000000, 0.000000000000000000 ) ) ;
#29 = CC_DESIGN_DATE_AND_TIME_ASSIGNMENT ( #83, #135, ( #73 ) ) ;
#30 = CALENDAR_DATE ( 2023, 13, 2 ) ;
#31 = EDGE_LOOP ( 'NONE', ( #162, #16 ) ) ;
#32 = LOCAL_TIME ( 12, 30, 23.00000000000000000, #50 ) ;
#33 = SECURITY_CLASSIFICATION_LEVEL ( 'unclassified' ) ;
#34 = APPROVAL_ROLE ( '' ) ;
#35 = APPLICATION_CONTEXT ( 'configuration controlled 3d designs of mechanical parts and assemblies' ) ;
#36 = ORIENTED_EDGE ( 'NONE', *, *, #134, .F. ) ;
#37 = PLANE ( 'NONE',  #92 ) ;
#38 = EDGE_CURVE ( 'NONE', #68, #213, #53, .T. ) ;
#39 = DIRECTION ( 'NONE',  ( -0.000000000000000000, -0.000000000000000000, -1.000000000000000000 ) ) ;
#40 = CYLINDRICAL_SURFACE ( 'NONE', #170, 6.000000000000000888 ) ;
#41 = CIRCLE ( 'NONE', #219, 9.000000000000000000 ) ;
#42 = CC_DESIGN_APPROVAL ( #197, ( #180 ) ) ;
#43 = DIRECTION ( 'NONE',  ( -1.000000000000000000, 0.000000000000000000, 0.000000000000000000 ) ) ;
#44 = CARTESIAN_POINT ( 'NONE',  ( 6.000000000000000888, 7.347880794884120722E-16, 1200.000000000000000 ) ) ;
#45 = AXIS2_PLACEMENT_3D ( 'NONE', #27, #120, #146 ) ;
#46 = FACE_BOUND ( 'NONE', #136, .T. ) ;
#47 = CARTESIAN_POINT ( 'NONE',  ( -6.000000000000000888, 0.000000000000000000, 1200.000000000000000 ) ) ;
#48 = UNCERTAINTY_MEASURE_WITH_UNIT (LENGTH_MEASURE( 1.000000000000000082E-05 ), #26, 'distance_accuracy_value', 'NONE');
#49 = CC_DESIGN_PERSON_AND_ORGANIZATION_ASSIGNMENT ( #128, #12, ( #73 ) ) ;
#50 = COORDINATED_UNIVERSAL_TIME_OFFSET ( 1, 0, .AHEAD. ) ;
#51 = PERSON_AND_ORGANIZATION ( #173, #107 ) ;
#52 = VERTEX_POINT ( 'NONE', #93 ) ;
#53 = CIRCLE ( 'NONE', #247, 9.000000000000000000 ) ;
#54 = APPROVAL_ROLE ( '' ) ;
#55 = APPROVAL_PERSON_ORGANIZATION ( #51, #197, #34 ) ;
#56 = EDGE_LOOP ( 'NONE', ( #239, #174, #21, #232 ) ) ;
#57 = APPROVAL_DATE_TIME ( #13, #230 ) ;
#58 = ORIENTED_EDGE ( 'NONE', *, *, #106, .T. ) ;
#59 = VERTEX_POINT ( 'NONE', #44 ) ;
#60 = ORIENTED_EDGE ( 'NONE', *, *, #85, .T. ) ;
#61 = CARTESIAN_POINT ( 'NONE',  ( -9.000000000000000000, 0.000000000000000000, 0.000000000000000000 ) ) ;
#62 = EDGE_LOOP ( 'NONE', ( #157, #15 ) ) ;
#63 = CARTESIAN_POINT ( 'NONE',  ( 0.000000000000000000, 0.000000000000000000, 1200.000000000000000 ) ) ;
#64 = APPLICATION_PROTOCOL_DEFINITION ( 'international standard', 'config_control_design', 1994, #35 ) ;
#65 = APPROVAL_ROLE ( '' ) ;
#66 = CARTESIAN_POINT ( 'NONE',  ( 0.000000000000000000, 0.000000000000000000, 0.000000000000000000 ) ) ;
#67 = CARTESIAN_POINT ( 'NONE',  ( 0.000000000000000000, 0.000000000000000000, 1200.000000000000000 ) ) ;
#68 = VERTEX_POINT ( 'NONE', #77 ) ;
#69 = LOCAL_TIME ( 12, 30, 23.00000000000000000, #234 ) ;
#70 = PERSON_AND_ORGANIZATION_ROLE ( 'design_supplier' ) ;
#71 = DATE_AND_TIME ( #104, #251 ) ;
#72 = DIRECTION ( 'NONE',  ( 0.000000000000000000, 0.000000000000000000, 1.000000000000000000 ) ) ;
#73 = PRODUCT_DEFINITION ( 'NEZNÁMÝ', '', #113, #220 ) ;
#74 = DIRECTION ( 'NONE',  ( 1.000000000000000000, 0.000000000000000000, 0.000000000000000000 ) ) ;
#75 = DIRECTION ( 'NONE',  ( -0.000000000000000000, -0.000000000000000000, -1.000000000000000000 ) ) ;
#76 = CARTESIAN_POINT ( 'NONE',  ( 0.000000000000000000, 0.000000000000000000, 6.500000000000000000 ) ) ;
#77 = CARTESIAN_POINT ( 'NONE',  ( 9.000000000000000000, 1.102182119232617517E-15, 6.500000000000000000 ) ) ;
#78 = COORDINATED_UNIVERSAL_TIME_OFFSET ( 1, 0, .AHEAD. ) ;
#79 = EDGE_CURVE ( 'NONE', #59, #200, #160, .T. ) ;
#80 = CIRCLE ( 'NONE', #1, 9.000000000000000000 ) ;
#81 = FACE_OUTER_BOUND ( 'NONE', #90, .T. ) ;
#82 = PERSON_AND_ORGANIZATION_ROLE ( 'design_owner' ) ;
#83 = DATE_AND_TIME ( #86, #137 ) ;
#84 = DATE_TIME_ROLE ( 'classification_date' ) ;
#85 = EDGE_CURVE ( 'NONE', #68, #154, #179, .T. ) ;
#86 = CALENDAR_DATE ( 2023, 13, 2 ) ;
#87 = AXIS2_PLACEMENT_3D ( 'NONE', #125, #187, #149 ) ;
#88 = ADVANCED_FACE ( 'NONE', ( #118 ), #240, .T. ) ;
#89 = ORIENTED_EDGE ( 'NONE', *, *, #6, .F. ) ;
#90 = EDGE_LOOP ( 'NONE', ( #158, #196 ) ) ;
#91 = ADVANCED_BREP_SHAPE_REPRESENTATION ( 'c8cf', ( #236, #235 ), #143 ) ;
#92 = AXIS2_PLACEMENT_3D ( 'NONE', #164, #7, #201 ) ;
#93 = CARTESIAN_POINT ( 'NONE',  ( -6.000000000000000888, 0.000000000000000000, 6.500000000000000000 ) ) ;
#94 = ORIENTED_EDGE ( 'NONE', *, *, #79, .F. ) ;
#95 = VERTEX_POINT ( 'NONE', #61 ) ;
#96 = CARTESIAN_POINT ( 'NONE',  ( 0.000000000000000000, 0.000000000000000000, 6.500000000000000000 ) ) ;
#97 = DIRECTION ( 'NONE',  ( -0.000000000000000000, -0.000000000000000000, -1.000000000000000000 ) ) ;
#98 = CARTESIAN_POINT ( 'NONE',  ( 9.000000000000000000, 1.102182119232617517E-15, 0.000000000000000000 ) ) ;
#99 = DIRECTION ( 'NONE',  ( 0.000000000000000000, 0.000000000000000000, 1.000000000000000000 ) ) ;
#100 = AXIS2_PLACEMENT_3D ( 'NONE', #63, #241, #23 ) ;
#101 = AXIS2_PLACEMENT_3D ( 'NONE', #244, #148, #102 ) ;
#102 = DIRECTION ( 'NONE',  ( 1.000000000000000000, 0.000000000000000000, 0.000000000000000000 ) ) ;
#103 = CALENDAR_DATE ( 2023, 13, 2 ) ;
#104 = CALENDAR_DATE ( 2023, 13, 2 ) ;
#105 = COORDINATED_UNIVERSAL_TIME_OFFSET ( 1, 0, .AHEAD. ) ;
#106 = EDGE_CURVE ( 'NONE', #52, #200, #255, .T. ) ;
#107 = ORGANIZATION ( 'NEURÈENÝ', 'NEURÈENÝ', '' ) ;
#108 = CALENDAR_DATE ( 2023, 13, 2 ) ;
#109 = ORIENTED_EDGE ( 'NONE', *, *, #169, .T. ) ;
#110 = APPROVAL ( #253, 'NEURÈENÝ' ) ;
#111 = CIRCLE ( 'NONE', #183, 9.000000000000000000 ) ;
#112 = EDGE_LOOP ( 'NONE', ( #94, #36, #214, #58 ) ) ;
#113 = PRODUCT_DEFINITION_FORMATION_WITH_SPECIFIED_SOURCE ( 'LIBOVOLNÝ', '', #129, .NOT_KNOWN. ) ;
#114 = CARTESIAN_POINT ( 'NONE',  ( 6.000000000000000888, 7.347880794884120722E-16, 1200.000000000000000 ) ) ;
#115 = DIRECTION ( 'NONE',  ( 1.000000000000000000, 0.000000000000000000, 0.000000000000000000 ) ) ;
#116 = DIRECTION ( 'NONE',  ( -1.000000000000000000, 0.000000000000000000, 0.000000000000000000 ) ) ;
#117 = CYLINDRICAL_SURFACE ( 'NONE', #150, 9.000000000000000000 ) ;
#118 = FACE_OUTER_BOUND ( 'NONE', #133, .T. ) ;
#119 = ADVANCED_FACE ( 'NONE', ( #218 ), #117, .T. ) ;
#120 = DIRECTION ( 'NONE',  ( 0.000000000000000000, 0.000000000000000000, 1.000000000000000000 ) ) ;
#121 = CC_DESIGN_APPROVAL ( #230, ( #73 ) ) ;
#122 = CARTESIAN_POINT ( 'NONE',  ( 6.000000000000000888, 7.347880794884120722E-16, 6.500000000000000000 ) ) ;
#123 = CARTESIAN_POINT ( 'NONE',  ( 0.000000000000000000, 0.000000000000000000, 0.000000000000000000 ) ) ;
#124 = LINE ( 'NONE', #229, #206 ) ;
#125 = CARTESIAN_POINT ( 'NONE',  ( 0.000000000000000000, 0.000000000000000000, 6.500000000000000000 ) ) ;
#126 = ORIENTED_EDGE ( 'NONE', *, *, #38, .F. ) ;
#127 = EDGE_CURVE ( 'NONE', #154, #95, #111, .T. ) ;
#128 = PERSON_AND_ORGANIZATION ( #173, #107 ) ;
#129 = PRODUCT ( 'c8cf', 'c8cf', '', ( #145 ) ) ;
#130 = VECTOR ( 'NONE', #75, 1000.000000000000000 ) ;
#131 = DATE_AND_TIME ( #108, #69 ) ;
#132 = PERSON_AND_ORGANIZATION_ROLE ( 'classification_officer' ) ;
#133 = EDGE_LOOP ( 'NONE', ( #126, #60, #181, #8 ) ) ;
#134 = EDGE_CURVE ( 'NONE', #199, #59, #202, .T. ) ;
#135 = DATE_TIME_ROLE ( 'creation_date' ) ;
#136 = EDGE_LOOP ( 'NONE', ( #237, #175 ) ) ;
#137 = LOCAL_TIME ( 12, 30, 23.00000000000000000, #172 ) ;
#138 = CARTESIAN_POINT ( 'NONE',  ( 0.000000000000000000, 0.000000000000000000, 6.500000000000000000 ) ) ;
#139 = ADVANCED_FACE ( 'NONE', ( #25 ), #225, .F. ) ;
#140 = DIRECTION ( 'NONE',  ( 0.000000000000000000, 0.000000000000000000, 1.000000000000000000 ) ) ;
#141 = AXIS2_PLACEMENT_3D ( 'NONE', #182, #142, #43 ) ;
#142 = DIRECTION ( 'NONE',  ( -0.000000000000000000, -0.000000000000000000, -1.000000000000000000 ) ) ;
#143 =( GEOMETRIC_REPRESENTATION_CONTEXT ( 3 ) GLOBAL_UNCERTAINTY_ASSIGNED_CONTEXT ( ( #48 ) ) GLOBAL_UNIT_ASSIGNED_CONTEXT ( ( #26, #190, #249 ) ) REPRESENTATION_CONTEXT ( 'NONE', 'WORKASPACE' ) );
#144 = DIRECTION ( 'NONE',  ( -0.000000000000000000, -0.000000000000000000, -1.000000000000000000 ) ) ;
#145 = MECHANICAL_CONTEXT ( 'NONE', #35, 'mechanical' ) ;
#146 = DIRECTION ( 'NONE',  ( 1.000000000000000000, 0.000000000000000000, 0.000000000000000000 ) ) ;
#147 = AXIS2_PLACEMENT_3D ( 'NONE', #67, #10, #227 ) ;
#148 = DIRECTION ( 'NONE',  ( 0.000000000000000000, 0.000000000000000000, 1.000000000000000000 ) ) ;
#149 = DIRECTION ( 'NONE',  ( 1.000000000000000000, 0.000000000000000000, -0.000000000000000000 ) ) ;
#150 = AXIS2_PLACEMENT_3D ( 'NONE', #223, #203, #2 ) ;
#151 = DATE_AND_TIME ( #30, #32 ) ;
#152 = EDGE_CURVE ( 'NONE', #200, #52, #222, .T. ) ;
#153 = PRODUCT_RELATED_PRODUCT_CATEGORY ( 'detail', '', ( #129 ) ) ;
#154 = VERTEX_POINT ( 'NONE', #98 ) ;
#155 = PERSON_AND_ORGANIZATION_ROLE ( 'creator' ) ;
#156 = SHAPE_DEFINITION_REPRESENTATION ( #254, #91 ) ;
#157 = ORIENTED_EDGE ( 'NONE', *, *, #134, .T. ) ;
#158 = ORIENTED_EDGE ( 'NONE', *, *, #6, .T. ) ;
#159 = DIRECTION ( 'NONE',  ( 1.000000000000000000, 0.000000000000000000, 0.000000000000000000 ) ) ;
#160 = LINE ( 'NONE', #114, #194 ) ;
#161 = DIRECTION ( 'NONE',  ( 0.000000000000000000, 0.000000000000000000, 1.000000000000000000 ) ) ;
#162 = ORIENTED_EDGE ( 'NONE', *, *, #233, .F. ) ;
#163 = CC_DESIGN_PERSON_AND_ORGANIZATION_ASSIGNMENT ( #246, #82, ( #129 ) ) ;
#164 = CARTESIAN_POINT ( 'NONE',  ( 0.000000000000000000, 0.000000000000000000, 1200.000000000000000 ) ) ;
#165 = DIRECTION ( 'NONE',  ( 1.000000000000000000, 0.000000000000000000, -0.000000000000000000 ) ) ;
#166 = DIRECTION ( 'NONE',  ( 1.000000000000000000, 0.000000000000000000, 0.000000000000000000 ) ) ;
#167 = APPLICATION_PROTOCOL_DEFINITION ( 'international standard', 'config_control_design', 1994, #224 ) ;
#168 = APPROVAL_STATUS ( 'not_yet_approved' ) ;
#169 = EDGE_CURVE ( 'NONE', #213, #95, #189, .T. ) ;
#170 = AXIS2_PLACEMENT_3D ( 'NONE', #216, #144, #116 ) ;
#171 = VECTOR ( 'NONE', #11, 1000.000000000000000 ) ;
#172 = COORDINATED_UNIVERSAL_TIME_OFFSET ( 1, 0, .AHEAD. ) ;
#173 = PERSON ( 'NEURÈENÝ', 'NEURÈENÝ', 'NEURÈENÝ', ('NEURÈENÝ'), ('NEURÈENÝ'), ('NEURÈENÝ') ) ;
#174 = ORIENTED_EDGE ( 'NONE', *, *, #79, .T. ) ;
#175 = ORIENTED_EDGE ( 'NONE', *, *, #152, .F. ) ;
#176 = ORIENTED_EDGE ( 'NONE', *, *, #85, .F. ) ;
#177 = FACE_OUTER_BOUND ( 'NONE', #62, .T. ) ;
#178 = CC_DESIGN_PERSON_AND_ORGANIZATION_ASSIGNMENT ( #231, #132, ( #180 ) ) ;
#179 = LINE ( 'NONE', #5, #130 ) ;
#180 = SECURITY_CLASSIFICATION ( '', '', #33 ) ;
#181 = ORIENTED_EDGE ( 'NONE', *, *, #127, .T. ) ;
#182 = CARTESIAN_POINT ( 'NONE',  ( 0.000000000000000000, 0.000000000000000000, 6.500000000000000000 ) ) ;
#183 = AXIS2_PLACEMENT_3D ( 'NONE', #20, #72, #159 ) ;
#184 = PLANE ( 'NONE',  #87 ) ;
#185 = CC_DESIGN_APPROVAL ( #110, ( #113 ) ) ;
#186 = DIRECTION ( 'NONE',  ( 0.000000000000000000, 0.000000000000000000, 1.000000000000000000 ) ) ;
#187 = DIRECTION ( 'NONE',  ( 0.000000000000000000, 0.000000000000000000, 1.000000000000000000 ) ) ;
#188 = ADVANCED_FACE ( 'NONE', ( #46, #81 ), #184, .T. ) ;
#189 = LINE ( 'NONE', #228, #171 ) ;
#190 =( NAMED_UNIT ( * ) PLANE_ANGLE_UNIT ( ) SI_UNIT ( $, .RADIAN. ) );
#191 = APPROVAL_DATE_TIME ( #71, #197 ) ;
#192 = CLOSED_SHELL ( 'NONE', ( #14, #88, #119, #188, #139, #22, #18 ) ) ;
#193 = EDGE_LOOP ( 'NONE', ( #176, #89, #109, #221 ) ) ;
#194 = VECTOR ( 'NONE', #39, 1000.000000000000000 ) ;
#195 = APPROVAL_PERSON_ORGANIZATION ( #250, #230, #65 ) ;
#196 = ORIENTED_EDGE ( 'NONE', *, *, #38, .T. ) ;
#197 = APPROVAL ( #168, 'NEURÈENÝ' ) ;
#198 = EDGE_CURVE ( 'NONE', #59, #199, #4, .T. ) ;
#199 = VERTEX_POINT ( 'NONE', #47 ) ;
#200 = VERTEX_POINT ( 'NONE', #122 ) ;
#201 = DIRECTION ( 'NONE',  ( 1.000000000000000000, 0.000000000000000000, -0.000000000000000000 ) ) ;
#202 = CIRCLE ( 'NONE', #147, 6.000000000000000888 ) ;
#203 = DIRECTION ( 'NONE',  ( -0.000000000000000000, -0.000000000000000000, -1.000000000000000000 ) ) ;
#204 = CYLINDRICAL_SURFACE ( 'NONE', #100, 6.000000000000000888 ) ;
#205 = APPROVAL_STATUS ( 'not_yet_approved' ) ;
#206 = VECTOR ( 'NONE', #97, 1000.000000000000000 ) ;
#207 = CARTESIAN_POINT ( 'NONE',  ( -9.000000000000000000, 0.000000000000000000, 6.500000000000000000 ) ) ;
#208 = DIRECTION ( 'NONE',  ( 0.000000000000000000, 0.000000000000000000, 1.000000000000000000 ) ) ;
#209 = PERSON_AND_ORGANIZATION ( #173, #107 ) ;
#210 = PERSON_AND_ORGANIZATION ( #173, #107 ) ;
#211 = PERSON_AND_ORGANIZATION ( #173, #107 ) ;
#212 = APPROVAL_DATE_TIME ( #151, #110 ) ;
#213 = VERTEX_POINT ( 'NONE', #207 ) ;
#214 = ORIENTED_EDGE ( 'NONE', *, *, #226, .T. ) ;
#215 = APPROVAL_PERSON_ORGANIZATION ( #209, #110, #54 ) ;
#216 = CARTESIAN_POINT ( 'NONE',  ( 0.000000000000000000, 0.000000000000000000, 1200.000000000000000 ) ) ;
#217 = DIRECTION ( 'NONE',  ( 0.000000000000000000, 0.000000000000000000, 1.000000000000000000 ) ) ;
#218 = FACE_OUTER_BOUND ( 'NONE', #193, .T. ) ;
#219 = AXIS2_PLACEMENT_3D ( 'NONE', #138, #161, #115 ) ;
#220 = DESIGN_CONTEXT ( 'detailed design', #224, 'design' ) ;
#221 = ORIENTED_EDGE ( 'NONE', *, *, #233, .T. ) ;
#222 = CIRCLE ( 'NONE', #101, 6.000000000000000888 ) ;
#223 = CARTESIAN_POINT ( 'NONE',  ( 0.000000000000000000, 0.000000000000000000, 6.500000000000000000 ) ) ;
#224 = APPLICATION_CONTEXT ( 'configuration controlled 3d designs of mechanical parts and assemblies' ) ;
#225 = PLANE ( 'NONE',  #19 ) ;
#226 = EDGE_CURVE ( 'NONE', #199, #52, #124, .T. ) ;
#227 = DIRECTION ( 'NONE',  ( 1.000000000000000000, 0.000000000000000000, 0.000000000000000000 ) ) ;
#228 = CARTESIAN_POINT ( 'NONE',  ( -9.000000000000000000, 0.000000000000000000, 6.500000000000000000 ) ) ;
#229 = CARTESIAN_POINT ( 'NONE',  ( -6.000000000000000888, 0.000000000000000000, 1200.000000000000000 ) ) ;
#230 = APPROVAL ( #205, 'NEURÈENÝ' ) ;
#231 = PERSON_AND_ORGANIZATION ( #173, #107 ) ;
#232 = ORIENTED_EDGE ( 'NONE', *, *, #226, .F. ) ;
#233 = EDGE_CURVE ( 'NONE', #95, #154, #80, .T. ) ;
#234 = COORDINATED_UNIVERSAL_TIME_OFFSET ( 1, 0, .AHEAD. ) ;
#235 = AXIS2_PLACEMENT_3D ( 'NONE', #248, #208, #28 ) ;
#236 = MANIFOLD_SOLID_BREP ( 'Pøidat vysunutím3', #192 ) ;
#237 = ORIENTED_EDGE ( 'NONE', *, *, #106, .F. ) ;
#238 = LOCAL_TIME ( 12, 30, 23.00000000000000000, #78 ) ;
#239 = ORIENTED_EDGE ( 'NONE', *, *, #198, .F. ) ;
#240 = CYLINDRICAL_SURFACE ( 'NONE', #141, 9.000000000000000000 ) ;
#241 = DIRECTION ( 'NONE',  ( -0.000000000000000000, -0.000000000000000000, -1.000000000000000000 ) ) ;
#242 = AXIS2_PLACEMENT_3D ( 'NONE', #96, #140, #243 ) ;
#243 = DIRECTION ( 'NONE',  ( 1.000000000000000000, 0.000000000000000000, 0.000000000000000000 ) ) ;
#244 = CARTESIAN_POINT ( 'NONE',  ( 0.000000000000000000, 0.000000000000000000, 6.500000000000000000 ) ) ;
#245 = CC_DESIGN_DATE_AND_TIME_ASSIGNMENT ( #131, #84, ( #180 ) ) ;
#246 = PERSON_AND_ORGANIZATION ( #173, #107 ) ;
#247 = AXIS2_PLACEMENT_3D ( 'NONE', #76, #217, #74 ) ;
#248 = CARTESIAN_POINT ( 'NONE',  ( 0.000000000000000000, 0.000000000000000000, 0.000000000000000000 ) ) ;
#249 =( NAMED_UNIT ( * ) SI_UNIT ( $, .STERADIAN. ) SOLID_ANGLE_UNIT ( ) );
#250 = PERSON_AND_ORGANIZATION ( #173, #107 ) ;
#251 = LOCAL_TIME ( 12, 30, 23.00000000000000000, #105 ) ;
#252 = CC_DESIGN_PERSON_AND_ORGANIZATION_ASSIGNMENT ( #210, #70, ( #113 ) ) ;
#253 = APPROVAL_STATUS ( 'not_yet_approved' ) ;
#254 = PRODUCT_DEFINITION_SHAPE ( 'NONE', 'NONE',  #73 ) ;
#255 = CIRCLE ( 'NONE', #242, 6.000000000000000888 ) ;
ENDSEC;
END-ISO-10303-21;
