ISO-10303-21;
HEADER;
FILE_DESCRIPTION (( 'STEP AP203' ),
    '1' );
FILE_NAME ('5c35.STEP',
    '2023-02-13T16:05:57',
    ( '' ),
    ( '' ),
    'SwSTEP 2.0',
    'SolidWorks 2019',
    '' );
FILE_SCHEMA (( 'CONFIG_CONTROL_DESIGN' ));
ENDSEC;

DATA;
#1 = CIRCLE ( 'NONE', #138, 5.000000000000000000 ) ;
#2 = ORIENTED_EDGE ( 'NONE', *, *, #111, .T. ) ;
#3 = UNCERTAINTY_MEASURE_WITH_UNIT (LENGTH_MEASURE( 1.000000000000000082E-05 ), #35, 'distance_accuracy_value', 'NONE');
#4 = ORIENTED_EDGE ( 'NONE', *, *, #7, .T. ) ;
#5 = AXIS2_PLACEMENT_3D ( 'NONE', #234, #80, #244 ) ;
#6 = VERTEX_POINT ( 'NONE', #231 ) ;
#7 = EDGE_CURVE ( 'NONE', #177, #219, #243, .T. ) ;
#8 = CARTESIAN_POINT ( 'NONE',  ( 0.000000000000000000, 0.000000000000000000, 400.0000000000000000 ) ) ;
#9 = DATE_AND_TIME ( #241, #91 ) ;
#10 =( GEOMETRIC_REPRESENTATION_CONTEXT ( 3 ) GLOBAL_UNCERTAINTY_ASSIGNED_CONTEXT ( ( #3 ) ) GLOBAL_UNIT_ASSIGNED_CONTEXT ( ( #35, #210, #33 ) ) REPRESENTATION_CONTEXT ( 'NONE', 'WORKASPACE' ) );
#11 = CIRCLE ( 'NONE', #94, 5.000000000000000000 ) ;
#12 = DIRECTION ( 'NONE',  ( 1.000000000000000000, 0.000000000000000000, 0.000000000000000000 ) ) ;
#13 = EDGE_CURVE ( 'NONE', #222, #219, #186, .T. ) ;
#14 = CARTESIAN_POINT ( 'NONE',  ( 2.500000000000000000, 3.061616997868382648E-16, 400.0000000000000000 ) ) ;
#15 = CARTESIAN_POINT ( 'NONE',  ( 0.000000000000000000, 0.000000000000000000, 5.000000000000000000 ) ) ;
#16 = CARTESIAN_POINT ( 'NONE',  ( 0.000000000000000000, 0.000000000000000000, 400.0000000000000000 ) ) ;
#17 = CC_DESIGN_PERSON_AND_ORGANIZATION_ASSIGNMENT ( #106, #21, ( #216 ) ) ;
#18 = CARTESIAN_POINT ( 'NONE',  ( 0.000000000000000000, 0.000000000000000000, 5.000000000000000000 ) ) ;
#19 = DIRECTION ( 'NONE',  ( -0.000000000000000000, -0.000000000000000000, -1.000000000000000000 ) ) ;
#20 = AXIS2_PLACEMENT_3D ( 'NONE', #152, #32, #168 ) ;
#21 = PERSON_AND_ORGANIZATION_ROLE ( 'creator' ) ;
#22 = ADVANCED_FACE ( 'NONE', ( #254 ), #92, .T. ) ;
#23 = ORIENTED_EDGE ( 'NONE', *, *, #82, .T. ) ;
#24 = DATE_AND_TIME ( #26, #71 ) ;
#25 = EDGE_LOOP ( 'NONE', ( #104, #60 ) ) ;
#26 = CALENDAR_DATE ( 2023, 13, 2 ) ;
#27 = PERSON_AND_ORGANIZATION_ROLE ( 'classification_officer' ) ;
#28 = CC_DESIGN_APPROVAL ( #178, ( #216 ) ) ;
#29 = VECTOR ( 'NONE', #88, 1000.000000000000000 ) ;
#30 = CARTESIAN_POINT ( 'NONE',  ( 0.000000000000000000, 0.000000000000000000, 5.000000000000000000 ) ) ;
#31 = DIRECTION ( 'NONE',  ( 1.000000000000000000, 0.000000000000000000, -0.000000000000000000 ) ) ;
#32 = DIRECTION ( 'NONE',  ( 0.000000000000000000, 0.000000000000000000, 1.000000000000000000 ) ) ;
#33 =( NAMED_UNIT ( * ) SI_UNIT ( $, .STERADIAN. ) SOLID_ANGLE_UNIT ( ) );
#34 = ADVANCED_FACE ( 'NONE', ( #191 ), #188, .T. ) ;
#35 =( LENGTH_UNIT ( ) NAMED_UNIT ( * ) SI_UNIT ( .MILLI., .METRE. ) );
#36 = EDGE_CURVE ( 'NONE', #127, #101, #160, .T. ) ;
#37 = FACE_OUTER_BOUND ( 'NONE', #240, .T. ) ;
#38 = DIRECTION ( 'NONE',  ( -1.000000000000000000, 0.000000000000000000, 0.000000000000000000 ) ) ;
#39 = DATE_AND_TIME ( #221, #212 ) ;
#40 = ORGANIZATION ( 'NEURÈENÝ', 'NEURÈENÝ', '' ) ;
#41 = APPROVAL_ROLE ( '' ) ;
#42 = PERSON_AND_ORGANIZATION_ROLE ( 'design_owner' ) ;
#43 = ORIENTED_EDGE ( 'NONE', *, *, #13, .T. ) ;
#44 = MECHANICAL_CONTEXT ( 'NONE', #157, 'mechanical' ) ;
#45 = EDGE_LOOP ( 'NONE', ( #129, #77 ) ) ;
#46 = EDGE_LOOP ( 'NONE', ( #65, #159, #147, #81 ) ) ;
#47 = AXIS2_PLACEMENT_3D ( 'NONE', #207, #149, #225 ) ;
#48 = CALENDAR_DATE ( 2023, 13, 2 ) ;
#49 = FACE_OUTER_BOUND ( 'NONE', #245, .T. ) ;
#50 = CARTESIAN_POINT ( 'NONE',  ( 0.000000000000000000, 0.000000000000000000, 5.000000000000000000 ) ) ;
#51 = AXIS2_PLACEMENT_3D ( 'NONE', #209, #116, #69 ) ;
#52 = DIRECTION ( 'NONE',  ( -1.000000000000000000, 0.000000000000000000, 0.000000000000000000 ) ) ;
#53 = CARTESIAN_POINT ( 'NONE',  ( 0.000000000000000000, 0.000000000000000000, 400.0000000000000000 ) ) ;
#54 = CARTESIAN_POINT ( 'NONE',  ( 5.000000000000000000, 6.123233995736766282E-16, 5.000000000000000000 ) ) ;
#55 = DIRECTION ( 'NONE',  ( 1.000000000000000000, 0.000000000000000000, 0.000000000000000000 ) ) ;
#56 = AXIS2_PLACEMENT_3D ( 'NONE', #95, #255, #203 ) ;
#57 = CARTESIAN_POINT ( 'NONE',  ( 0.000000000000000000, 0.000000000000000000, 400.0000000000000000 ) ) ;
#58 = CIRCLE ( 'NONE', #113, 5.000000000000000000 ) ;
#59 = CC_DESIGN_PERSON_AND_ORGANIZATION_ASSIGNMENT ( #144, #42, ( #121 ) ) ;
#60 = ORIENTED_EDGE ( 'NONE', *, *, #97, .T. ) ;
#61 = ORIENTED_EDGE ( 'NONE', *, *, #93, .T. ) ;
#62 = DATE_AND_TIME ( #125, #176 ) ;
#63 = APPLICATION_PROTOCOL_DEFINITION ( 'international standard', 'config_control_design', 1994, #131 ) ;
#64 = CC_DESIGN_DATE_AND_TIME_ASSIGNMENT ( #62, #86, ( #115 ) ) ;
#65 = ORIENTED_EDGE ( 'NONE', *, *, #97, .F. ) ;
#66 = APPROVAL_STATUS ( 'not_yet_approved' ) ;
#67 = PERSON_AND_ORGANIZATION ( #133, #40 ) ;
#68 = VECTOR ( 'NONE', #169, 1000.000000000000000 ) ;
#69 = DIRECTION ( 'NONE',  ( 1.000000000000000000, 0.000000000000000000, 0.000000000000000000 ) ) ;
#70 = DIRECTION ( 'NONE',  ( 0.000000000000000000, 0.000000000000000000, 1.000000000000000000 ) ) ;
#71 = LOCAL_TIME ( 17, 5, 57.00000000000000000, #146 ) ;
#72 = CARTESIAN_POINT ( 'NONE',  ( -5.000000000000000000, 0.000000000000000000, 5.000000000000000000 ) ) ;
#73 = DIRECTION ( 'NONE',  ( 1.000000000000000000, 0.000000000000000000, 0.000000000000000000 ) ) ;
#74 = APPROVAL ( #66, 'NEURÈENÝ' ) ;
#75 = VECTOR ( 'NONE', #236, 1000.000000000000000 ) ;
#76 = DIRECTION ( 'NONE',  ( 0.000000000000000000, 0.000000000000000000, 1.000000000000000000 ) ) ;
#77 = ORIENTED_EDGE ( 'NONE', *, *, #36, .F. ) ;
#78 = ADVANCED_BREP_SHAPE_REPRESENTATION ( '5c35', ( #99, #5 ), #10 ) ;
#79 = COORDINATED_UNIVERSAL_TIME_OFFSET ( 1, 0, .AHEAD. ) ;
#80 = DIRECTION ( 'NONE',  ( 0.000000000000000000, 0.000000000000000000, 1.000000000000000000 ) ) ;
#81 = ORIENTED_EDGE ( 'NONE', *, *, #193, .F. ) ;
#82 = EDGE_CURVE ( 'NONE', #202, #177, #150, .T. ) ;
#83 = SHAPE_DEFINITION_REPRESENTATION ( #238, #78 ) ;
#84 = APPROVAL_DATE_TIME ( #24, #178 ) ;
#85 = ORIENTED_EDGE ( 'NONE', *, *, #184, .F. ) ;
#86 = DATE_TIME_ROLE ( 'classification_date' ) ;
#87 = VERTEX_POINT ( 'NONE', #166 ) ;
#88 = DIRECTION ( 'NONE',  ( -0.000000000000000000, -0.000000000000000000, -1.000000000000000000 ) ) ;
#89 = AXIS2_PLACEMENT_3D ( 'NONE', #57, #76, #55 ) ;
#90 = DIRECTION ( 'NONE',  ( 1.000000000000000000, 0.000000000000000000, 0.000000000000000000 ) ) ;
#91 = LOCAL_TIME ( 17, 5, 57.00000000000000000, #79 ) ;
#92 = CYLINDRICAL_SURFACE ( 'NONE', #172, 2.500000000000000000 ) ;
#93 = EDGE_CURVE ( 'NONE', #101, #127, #194, .T. ) ;
#94 = AXIS2_PLACEMENT_3D ( 'NONE', #253, #70, #151 ) ;
#95 = CARTESIAN_POINT ( 'NONE',  ( 0.000000000000000000, 0.000000000000000000, 0.000000000000000000 ) ) ;
#96 = DIRECTION ( 'NONE',  ( 1.000000000000000000, 0.000000000000000000, 0.000000000000000000 ) ) ;
#97 = EDGE_CURVE ( 'NONE', #87, #6, #230, .T. ) ;
#98 = CARTESIAN_POINT ( 'NONE',  ( -2.500000000000000000, 0.000000000000000000, 400.0000000000000000 ) ) ;
#99 = MANIFOLD_SOLID_BREP ( 'Pøidat vysunutím3', #170 ) ;
#100 = APPROVAL_STATUS ( 'not_yet_approved' ) ;
#101 = VERTEX_POINT ( 'NONE', #130 ) ;
#102 = ORIENTED_EDGE ( 'NONE', *, *, #204, .F. ) ;
#103 = APPROVAL_DATE_TIME ( #163, #208 ) ;
#104 = ORIENTED_EDGE ( 'NONE', *, *, #204, .T. ) ;
#105 = APPROVAL_DATE_TIME ( #9, #74 ) ;
#106 = PERSON_AND_ORGANIZATION ( #133, #40 ) ;
#107 = ORIENTED_EDGE ( 'NONE', *, *, #175, .T. ) ;
#108 = PRODUCT_DEFINITION_FORMATION_WITH_SPECIFIED_SOURCE ( 'LIBOVOLNÝ', '', #121, .NOT_KNOWN. ) ;
#109 = EDGE_LOOP ( 'NONE', ( #128, #85, #43, #107 ) ) ;
#110 = FACE_OUTER_BOUND ( 'NONE', #109, .T. ) ;
#111 = EDGE_CURVE ( 'NONE', #202, #222, #58, .T. ) ;
#112 = LINE ( 'NONE', #14, #68 ) ;
#113 = AXIS2_PLACEMENT_3D ( 'NONE', #15, #190, #90 ) ;
#114 = DIRECTION ( 'NONE',  ( -0.000000000000000000, -0.000000000000000000, -1.000000000000000000 ) ) ;
#115 = SECURITY_CLASSIFICATION ( '', '', #180 ) ;
#116 = DIRECTION ( 'NONE',  ( 0.000000000000000000, 0.000000000000000000, 1.000000000000000000 ) ) ;
#117 = AXIS2_PLACEMENT_3D ( 'NONE', #16, #136, #12 ) ;
#118 = CARTESIAN_POINT ( 'NONE',  ( -5.000000000000000000, 0.000000000000000000, 5.000000000000000000 ) ) ;
#119 = ADVANCED_FACE ( 'NONE', ( #49 ), #189, .F. ) ;
#120 = CARTESIAN_POINT ( 'NONE',  ( 0.000000000000000000, 0.000000000000000000, 5.000000000000000000 ) ) ;
#121 = PRODUCT ( '5c35', '5c35', '', ( #44 ) ) ;
#122 = PERSON_AND_ORGANIZATION ( #133, #40 ) ;
#123 = CIRCLE ( 'NONE', #89, 2.500000000000000000 ) ;
#124 = AXIS2_PLACEMENT_3D ( 'NONE', #50, #233, #73 ) ;
#125 = CALENDAR_DATE ( 2023, 13, 2 ) ;
#126 = ADVANCED_FACE ( 'NONE', ( #110 ), #252, .T. ) ;
#127 = VERTEX_POINT ( 'NONE', #132 ) ;
#128 = ORIENTED_EDGE ( 'NONE', *, *, #82, .F. ) ;
#129 = ORIENTED_EDGE ( 'NONE', *, *, #93, .F. ) ;
#130 = CARTESIAN_POINT ( 'NONE',  ( -2.500000000000000000, 0.000000000000000000, 5.000000000000000000 ) ) ;
#131 = APPLICATION_CONTEXT ( 'configuration controlled 3d designs of mechanical parts and assemblies' ) ;
#132 = CARTESIAN_POINT ( 'NONE',  ( 2.500000000000000000, 3.061616997868382648E-16, 5.000000000000000000 ) ) ;
#133 = PERSON ( 'NEURÈENÝ', 'NEURÈENÝ', 'NEURÈENÝ', ('NEURÈENÝ'), ('NEURÈENÝ'), ('NEURÈENÝ') ) ;
#134 = DIRECTION ( 'NONE',  ( 0.000000000000000000, 0.000000000000000000, 1.000000000000000000 ) ) ;
#135 = ADVANCED_FACE ( 'NONE', ( #205, #227 ), #206, .T. ) ;
#136 = DIRECTION ( 'NONE',  ( 0.000000000000000000, 0.000000000000000000, 1.000000000000000000 ) ) ;
#137 = DIRECTION ( 'NONE',  ( -0.000000000000000000, -0.000000000000000000, -1.000000000000000000 ) ) ;
#138 = AXIS2_PLACEMENT_3D ( 'NONE', #18, #140, #96 ) ;
#139 = CYLINDRICAL_SURFACE ( 'NONE', #143, 5.000000000000000000 ) ;
#140 = DIRECTION ( 'NONE',  ( 0.000000000000000000, 0.000000000000000000, 1.000000000000000000 ) ) ;
#141 = CARTESIAN_POINT ( 'NONE',  ( 0.000000000000000000, 0.000000000000000000, 400.0000000000000000 ) ) ;
#142 = EDGE_LOOP ( 'NONE', ( #250, #2 ) ) ;
#143 = AXIS2_PLACEMENT_3D ( 'NONE', #120, #213, #38 ) ;
#144 = PERSON_AND_ORGANIZATION ( #133, #40 ) ;
#145 = ORIENTED_EDGE ( 'NONE', *, *, #175, .F. ) ;
#146 = COORDINATED_UNIVERSAL_TIME_OFFSET ( 1, 0, .AHEAD. ) ;
#147 = ORIENTED_EDGE ( 'NONE', *, *, #36, .T. ) ;
#148 = EDGE_LOOP ( 'NONE', ( #197, #102, #248, #61 ) ) ;
#149 = DIRECTION ( 'NONE',  ( -0.000000000000000000, -0.000000000000000000, -1.000000000000000000 ) ) ;
#150 = LINE ( 'NONE', #229, #182 ) ;
#151 = DIRECTION ( 'NONE',  ( 1.000000000000000000, 0.000000000000000000, 0.000000000000000000 ) ) ;
#152 = CARTESIAN_POINT ( 'NONE',  ( 0.000000000000000000, 0.000000000000000000, 0.000000000000000000 ) ) ;
#153 = DIRECTION ( 'NONE',  ( 1.000000000000000000, 0.000000000000000000, -0.000000000000000000 ) ) ;
#154 = APPLICATION_PROTOCOL_DEFINITION ( 'international standard', 'config_control_design', 1994, #157 ) ;
#155 = AXIS2_PLACEMENT_3D ( 'NONE', #30, #134, #31 ) ;
#156 = LINE ( 'NONE', #98, #75 ) ;
#157 = APPLICATION_CONTEXT ( 'configuration controlled 3d designs of mechanical parts and assemblies' ) ;
#158 = CARTESIAN_POINT ( 'NONE',  ( -5.000000000000000000, 0.000000000000000000, 0.000000000000000000 ) ) ;
#159 = ORIENTED_EDGE ( 'NONE', *, *, #167, .T. ) ;
#160 = CIRCLE ( 'NONE', #51, 2.500000000000000000 ) ;
#161 = COORDINATED_UNIVERSAL_TIME_OFFSET ( 1, 0, .AHEAD. ) ;
#162 = CC_DESIGN_SECURITY_CLASSIFICATION ( #115, ( #108 ) ) ;
#163 = DATE_AND_TIME ( #48, #187 ) ;
#164 = CC_DESIGN_PERSON_AND_ORGANIZATION_ASSIGNMENT ( #217, #27, ( #115 ) ) ;
#165 = APPROVAL_ROLE ( '' ) ;
#166 = CARTESIAN_POINT ( 'NONE',  ( 2.500000000000000000, 3.061616997868382648E-16, 400.0000000000000000 ) ) ;
#167 = EDGE_CURVE ( 'NONE', #87, #127, #112, .T. ) ;
#168 = DIRECTION ( 'NONE',  ( 1.000000000000000000, 0.000000000000000000, 0.000000000000000000 ) ) ;
#169 = DIRECTION ( 'NONE',  ( -0.000000000000000000, -0.000000000000000000, -1.000000000000000000 ) ) ;
#170 = CLOSED_SHELL ( 'NONE', ( #22, #242, #126, #135, #119, #220, #34 ) ) ;
#171 = DIRECTION ( 'NONE',  ( 0.000000000000000000, 0.000000000000000000, 1.000000000000000000 ) ) ;
#172 = AXIS2_PLACEMENT_3D ( 'NONE', #53, #137, #52 ) ;
#173 = CC_DESIGN_PERSON_AND_ORGANIZATION_ASSIGNMENT ( #249, #198, ( #108 ) ) ;
#174 = DIRECTION ( 'NONE',  ( -1.000000000000000000, 0.000000000000000000, 0.000000000000000000 ) ) ;
#175 = EDGE_CURVE ( 'NONE', #219, #177, #11, .T. ) ;
#176 = LOCAL_TIME ( 17, 5, 57.00000000000000000, #251 ) ;
#177 = VERTEX_POINT ( 'NONE', #192 ) ;
#178 = APPROVAL ( #215, 'NEURÈENÝ' ) ;
#179 = ORIENTED_EDGE ( 'NONE', *, *, #13, .F. ) ;
#180 = SECURITY_CLASSIFICATION_LEVEL ( 'unclassified' ) ;
#181 = APPROVAL_PERSON_ORGANIZATION ( #199, #178, #247 ) ;
#182 = VECTOR ( 'NONE', #114, 1000.000000000000000 ) ;
#183 = ORIENTED_EDGE ( 'NONE', *, *, #111, .F. ) ;
#184 = EDGE_CURVE ( 'NONE', #222, #202, #1, .T. ) ;
#185 = PRODUCT_RELATED_PRODUCT_CATEGORY ( 'detail', '', ( #121 ) ) ;
#186 = LINE ( 'NONE', #72, #29 ) ;
#187 = LOCAL_TIME ( 17, 5, 57.00000000000000000, #223 ) ;
#188 = PLANE ( 'NONE',  #195 ) ;
#189 = PLANE ( 'NONE',  #56 ) ;
#190 = DIRECTION ( 'NONE',  ( 0.000000000000000000, 0.000000000000000000, 1.000000000000000000 ) ) ;
#191 = FACE_OUTER_BOUND ( 'NONE', #25, .T. ) ;
#192 = CARTESIAN_POINT ( 'NONE',  ( 5.000000000000000000, 6.123233995736766282E-16, 0.000000000000000000 ) ) ;
#193 = EDGE_CURVE ( 'NONE', #6, #101, #156, .T. ) ;
#194 = CIRCLE ( 'NONE', #124, 2.500000000000000000 ) ;
#195 = AXIS2_PLACEMENT_3D ( 'NONE', #8, #171, #153 ) ;
#196 = FACE_OUTER_BOUND ( 'NONE', #148, .T. ) ;
#197 = ORIENTED_EDGE ( 'NONE', *, *, #167, .F. ) ;
#198 = PERSON_AND_ORGANIZATION_ROLE ( 'creator' ) ;
#199 = PERSON_AND_ORGANIZATION ( #133, #40 ) ;
#200 = ORIENTED_EDGE ( 'NONE', *, *, #7, .F. ) ;
#201 = APPROVAL_PERSON_ORGANIZATION ( #122, #208, #165 ) ;
#202 = VERTEX_POINT ( 'NONE', #54 ) ;
#203 = DIRECTION ( 'NONE',  ( 1.000000000000000000, 0.000000000000000000, -0.000000000000000000 ) ) ;
#204 = EDGE_CURVE ( 'NONE', #6, #87, #123, .T. ) ;
#205 = FACE_BOUND ( 'NONE', #45, .T. ) ;
#206 = PLANE ( 'NONE',  #155 ) ;
#207 = CARTESIAN_POINT ( 'NONE',  ( 0.000000000000000000, 0.000000000000000000, 5.000000000000000000 ) ) ;
#208 = APPROVAL ( #100, 'NEURÈENÝ' ) ;
#209 = CARTESIAN_POINT ( 'NONE',  ( 0.000000000000000000, 0.000000000000000000, 5.000000000000000000 ) ) ;
#210 =( NAMED_UNIT ( * ) PLANE_ANGLE_UNIT ( ) SI_UNIT ( $, .RADIAN. ) );
#211 = CYLINDRICAL_SURFACE ( 'NONE', #228, 2.500000000000000000 ) ;
#212 = LOCAL_TIME ( 17, 5, 57.00000000000000000, #161 ) ;
#213 = DIRECTION ( 'NONE',  ( -0.000000000000000000, -0.000000000000000000, -1.000000000000000000 ) ) ;
#214 = DESIGN_CONTEXT ( 'detailed design', #131, 'design' ) ;
#215 = APPROVAL_STATUS ( 'not_yet_approved' ) ;
#216 = PRODUCT_DEFINITION ( 'NEZNÁMÝ', '', #108, #214 ) ;
#217 = PERSON_AND_ORGANIZATION ( #133, #40 ) ;
#218 = CC_DESIGN_APPROVAL ( #208, ( #108 ) ) ;
#219 = VERTEX_POINT ( 'NONE', #158 ) ;
#220 = ADVANCED_FACE ( 'NONE', ( #196 ), #211, .T. ) ;
#221 = CALENDAR_DATE ( 2023, 13, 2 ) ;
#222 = VERTEX_POINT ( 'NONE', #118 ) ;
#223 = COORDINATED_UNIVERSAL_TIME_OFFSET ( 1, 0, .AHEAD. ) ;
#224 = PERSON_AND_ORGANIZATION ( #133, #40 ) ;
#225 = DIRECTION ( 'NONE',  ( -1.000000000000000000, 0.000000000000000000, 0.000000000000000000 ) ) ;
#226 = CC_DESIGN_PERSON_AND_ORGANIZATION_ASSIGNMENT ( #224, #246, ( #108 ) ) ;
#227 = FACE_OUTER_BOUND ( 'NONE', #142, .T. ) ;
#228 = AXIS2_PLACEMENT_3D ( 'NONE', #141, #19, #174 ) ;
#229 = CARTESIAN_POINT ( 'NONE',  ( 5.000000000000000000, 6.123233995736766282E-16, 5.000000000000000000 ) ) ;
#230 = CIRCLE ( 'NONE', #117, 2.500000000000000000 ) ;
#231 = CARTESIAN_POINT ( 'NONE',  ( -2.500000000000000000, 0.000000000000000000, 400.0000000000000000 ) ) ;
#232 = APPROVAL_PERSON_ORGANIZATION ( #67, #74, #41 ) ;
#233 = DIRECTION ( 'NONE',  ( 0.000000000000000000, 0.000000000000000000, 1.000000000000000000 ) ) ;
#234 = CARTESIAN_POINT ( 'NONE',  ( 0.000000000000000000, 0.000000000000000000, 0.000000000000000000 ) ) ;
#235 = CC_DESIGN_APPROVAL ( #74, ( #115 ) ) ;
#236 = DIRECTION ( 'NONE',  ( -0.000000000000000000, -0.000000000000000000, -1.000000000000000000 ) ) ;
#237 = CC_DESIGN_DATE_AND_TIME_ASSIGNMENT ( #39, #239, ( #216 ) ) ;
#238 = PRODUCT_DEFINITION_SHAPE ( 'NONE', 'NONE',  #216 ) ;
#239 = DATE_TIME_ROLE ( 'creation_date' ) ;
#240 = EDGE_LOOP ( 'NONE', ( #183, #23, #4, #179 ) ) ;
#241 = CALENDAR_DATE ( 2023, 13, 2 ) ;
#242 = ADVANCED_FACE ( 'NONE', ( #37 ), #139, .T. ) ;
#243 = CIRCLE ( 'NONE', #20, 5.000000000000000000 ) ;
#244 = DIRECTION ( 'NONE',  ( 1.000000000000000000, 0.000000000000000000, 0.000000000000000000 ) ) ;
#245 = EDGE_LOOP ( 'NONE', ( #145, #200 ) ) ;
#246 = PERSON_AND_ORGANIZATION_ROLE ( 'design_supplier' ) ;
#247 = APPROVAL_ROLE ( '' ) ;
#248 = ORIENTED_EDGE ( 'NONE', *, *, #193, .T. ) ;
#249 = PERSON_AND_ORGANIZATION ( #133, #40 ) ;
#250 = ORIENTED_EDGE ( 'NONE', *, *, #184, .T. ) ;
#251 = COORDINATED_UNIVERSAL_TIME_OFFSET ( 1, 0, .AHEAD. ) ;
#252 = CYLINDRICAL_SURFACE ( 'NONE', #47, 5.000000000000000000 ) ;
#253 = CARTESIAN_POINT ( 'NONE',  ( 0.000000000000000000, 0.000000000000000000, 0.000000000000000000 ) ) ;
#254 = FACE_OUTER_BOUND ( 'NONE', #46, .T. ) ;
#255 = DIRECTION ( 'NONE',  ( 0.000000000000000000, 0.000000000000000000, 1.000000000000000000 ) ) ;
ENDSEC;
END-ISO-10303-21;
