ISO-10303-21;
HEADER;
FILE_DESCRIPTION (( 'STEP AP203' ),
    '1' );
FILE_NAME ('3f13.STEP',
    '2023-02-13T11:29:12',
    ( '' ),
    ( '' ),
    'SwSTEP 2.0',
    'SolidWorks 2019',
    '' );
FILE_SCHEMA (( 'CONFIG_CONTROL_DESIGN' ));
ENDSEC;

DATA;
#1 = LINE ( 'NONE', #152, #135 ) ;
#2 = DIRECTION ( 'NONE',  ( 0.000000000000000000, 0.000000000000000000, 1.000000000000000000 ) ) ;
#3 = EDGE_LOOP ( 'NONE', ( #105, #245 ) ) ;
#4 =( NAMED_UNIT ( * ) SI_UNIT ( $, .STERADIAN. ) SOLID_ANGLE_UNIT ( ) );
#5 = CIRCLE ( 'NONE', #188, 9.000000000000000000 ) ;
#6 = CARTESIAN_POINT ( 'NONE',  ( -9.000000000000000000, 0.000000000000000000, 0.000000000000000000 ) ) ;
#7 = LOCAL_TIME ( 12, 29, 12.00000000000000000, #184 ) ;
#8 = EDGE_CURVE ( 'NONE', #208, #173, #1, .T. ) ;
#9 = PLANE ( 'NONE',  #220 ) ;
#10 = DATE_AND_TIME ( #164, #7 ) ;
#11 = DIRECTION ( 'NONE',  ( 1.000000000000000000, 0.000000000000000000, 0.000000000000000000 ) ) ;
#12 = APPLICATION_PROTOCOL_DEFINITION ( 'international standard', 'config_control_design', 1994, #69 ) ;
#13 = SECURITY_CLASSIFICATION ( '', '', #26 ) ;
#14 = COORDINATED_UNIVERSAL_TIME_OFFSET ( 1, 0, .AHEAD. ) ;
#15 = EDGE_CURVE ( 'NONE', #118, #113, #236, .T. ) ;
#16 = CARTESIAN_POINT ( 'NONE',  ( -9.000000000000000000, 0.000000000000000000, 7.000000000000000000 ) ) ;
#17 = CARTESIAN_POINT ( 'NONE',  ( 0.000000000000000000, 0.000000000000000000, 250.0000000000000000 ) ) ;
#18 = ORIENTED_EDGE ( 'NONE', *, *, #142, .F. ) ;
#19 = CIRCLE ( 'NONE', #78, 6.099999999999999645 ) ;
#20 = DIRECTION ( 'NONE',  ( 1.000000000000000000, 0.000000000000000000, -0.000000000000000000 ) ) ;
#21 = ORIENTED_EDGE ( 'NONE', *, *, #77, .T. ) ;
#22 = DIRECTION ( 'NONE',  ( 1.000000000000000000, 0.000000000000000000, -0.000000000000000000 ) ) ;
#23 = PRODUCT_DEFINITION_SHAPE ( 'NONE', 'NONE',  #83 ) ;
#24 = DIRECTION ( 'NONE',  ( -0.000000000000000000, -0.000000000000000000, -1.000000000000000000 ) ) ;
#25 = ORIENTED_EDGE ( 'NONE', *, *, #8, .F. ) ;
#26 = SECURITY_CLASSIFICATION_LEVEL ( 'unclassified' ) ;
#27 = CC_DESIGN_PERSON_AND_ORGANIZATION_ASSIGNMENT ( #240, #182, ( #33 ) ) ;
#28 = AXIS2_PLACEMENT_3D ( 'NONE', #222, #73, #114 ) ;
#29 = MECHANICAL_CONTEXT ( 'NONE', #86, 'mechanical' ) ;
#30 = PERSON_AND_ORGANIZATION ( #231, #46 ) ;
#31 = PLANE ( 'NONE',  #232 ) ;
#32 = ORIENTED_EDGE ( 'NONE', *, *, #37, .T. ) ;
#33 = PRODUCT_DEFINITION_FORMATION_WITH_SPECIFIED_SOURCE ( 'LIBOVOLNÝ', '', #92, .NOT_KNOWN. ) ;
#34 = CARTESIAN_POINT ( 'NONE',  ( -6.099999999999999645, 0.000000000000000000, 250.0000000000000000 ) ) ;
#35 = DESIGN_CONTEXT ( 'detailed design', #69, 'design' ) ;
#36 = LINE ( 'NONE', #34, #125 ) ;
#37 = EDGE_CURVE ( 'NONE', #118, #168, #74, .T. ) ;
#38 = DIRECTION ( 'NONE',  ( -1.000000000000000000, 0.000000000000000000, 0.000000000000000000 ) ) ;
#39 = EDGE_CURVE ( 'NONE', #208, #177, #204, .T. ) ;
#40 = FACE_OUTER_BOUND ( 'NONE', #154, .T. ) ;
#41 = ORIENTED_EDGE ( 'NONE', *, *, #193, .F. ) ;
#42 = CC_DESIGN_PERSON_AND_ORGANIZATION_ASSIGNMENT ( #30, #227, ( #92 ) ) ;
#43 = VERTEX_POINT ( 'NONE', #6 ) ;
#44 = PERSON_AND_ORGANIZATION ( #231, #46 ) ;
#45 = ORIENTED_EDGE ( 'NONE', *, *, #71, .T. ) ;
#46 = ORGANIZATION ( 'NEURÈENÝ', 'NEURÈENÝ', '' ) ;
#47 = PERSON_AND_ORGANIZATION ( #231, #46 ) ;
#48 = VECTOR ( 'NONE', #131, 1000.000000000000000 ) ;
#49 = EDGE_CURVE ( 'NONE', #126, #173, #19, .T. ) ;
#50 = ORIENTED_EDGE ( 'NONE', *, *, #71, .F. ) ;
#51 = APPROVAL_DATE_TIME ( #108, #94 ) ;
#52 = CC_DESIGN_PERSON_AND_ORGANIZATION_ASSIGNMENT ( #47, #80, ( #83 ) ) ;
#53 = PERSON_AND_ORGANIZATION ( #231, #46 ) ;
#54 = CARTESIAN_POINT ( 'NONE',  ( 0.000000000000000000, 0.000000000000000000, 0.000000000000000000 ) ) ;
#55 = PRODUCT_RELATED_PRODUCT_CATEGORY ( 'detail', '', ( #92 ) ) ;
#56 = CARTESIAN_POINT ( 'NONE',  ( 0.000000000000000000, 0.000000000000000000, 0.000000000000000000 ) ) ;
#57 = EDGE_LOOP ( 'NONE', ( #195, #81 ) ) ;
#58 = CARTESIAN_POINT ( 'NONE',  ( 0.000000000000000000, 0.000000000000000000, 7.000000000000000000 ) ) ;
#59 = ORIENTED_EDGE ( 'NONE', *, *, #37, .F. ) ;
#60 = APPROVAL_PERSON_ORGANIZATION ( #53, #94, #213 ) ;
#61 = FACE_OUTER_BOUND ( 'NONE', #228, .T. ) ;
#62 = EDGE_LOOP ( 'NONE', ( #138, #32, #90, #50 ) ) ;
#63 = LOCAL_TIME ( 12, 29, 12.00000000000000000, #139 ) ;
#64 = DIRECTION ( 'NONE',  ( 1.000000000000000000, 0.000000000000000000, 0.000000000000000000 ) ) ;
#65 = PERSON_AND_ORGANIZATION_ROLE ( 'design_supplier' ) ;
#66 = EDGE_CURVE ( 'NONE', #43, #168, #5, .T. ) ;
#67 = CARTESIAN_POINT ( 'NONE',  ( 0.000000000000000000, 0.000000000000000000, 0.000000000000000000 ) ) ;
#68 = CLOSED_SHELL ( 'NONE', ( #96, #132, #124, #107, #170, #252, #144 ) ) ;
#69 = APPLICATION_CONTEXT ( 'configuration controlled 3d designs of mechanical parts and assemblies' ) ;
#70 = DIRECTION ( 'NONE',  ( -0.000000000000000000, -0.000000000000000000, -1.000000000000000000 ) ) ;
#71 = EDGE_CURVE ( 'NONE', #113, #43, #110, .T. ) ;
#72 = CYLINDRICAL_SURFACE ( 'NONE', #119, 6.099999999999999645 ) ;
#73 = DIRECTION ( 'NONE',  ( -0.000000000000000000, -0.000000000000000000, -1.000000000000000000 ) ) ;
#74 = LINE ( 'NONE', #234, #48 ) ;
#75 = CARTESIAN_POINT ( 'NONE',  ( 0.000000000000000000, 0.000000000000000000, 7.000000000000000000 ) ) ;
#76 = ORIENTED_EDGE ( 'NONE', *, *, #39, .T. ) ;
#77 = EDGE_CURVE ( 'NONE', #177, #126, #36, .T. ) ;
#78 = AXIS2_PLACEMENT_3D ( 'NONE', #79, #158, #244 ) ;
#79 = CARTESIAN_POINT ( 'NONE',  ( 0.000000000000000000, 0.000000000000000000, 7.000000000000000000 ) ) ;
#80 = PERSON_AND_ORGANIZATION_ROLE ( 'creator' ) ;
#81 = ORIENTED_EDGE ( 'NONE', *, *, #181, .F. ) ;
#82 = CIRCLE ( 'NONE', #175, 6.099999999999999645 ) ;
#83 = PRODUCT_DEFINITION ( 'NEZNÁMÝ', '', #33, #35 ) ;
#84 = AXIS2_PLACEMENT_3D ( 'NONE', #128, #212, #169 ) ;
#85 = EDGE_CURVE ( 'NONE', #177, #208, #174, .T. ) ;
#86 = APPLICATION_CONTEXT ( 'configuration controlled 3d designs of mechanical parts and assemblies' ) ;
#87 = APPROVAL ( #163, 'NEURÈENÝ' ) ;
#88 = DIRECTION ( 'NONE',  ( -0.000000000000000000, -0.000000000000000000, -1.000000000000000000 ) ) ;
#89 = CARTESIAN_POINT ( 'NONE',  ( 6.099999999999999645, 7.470345474798854293E-16, 7.000000000000000000 ) ) ;
#90 = ORIENTED_EDGE ( 'NONE', *, *, #142, .T. ) ;
#91 = DIRECTION ( 'NONE',  ( 1.000000000000000000, 0.000000000000000000, 0.000000000000000000 ) ) ;
#92 = PRODUCT ( '3f13', '3f13', '', ( #29 ) ) ;
#93 = CYLINDRICAL_SURFACE ( 'NONE', #199, 9.000000000000000000 ) ;
#94 = APPROVAL ( #167, 'NEURÈENÝ' ) ;
#95 = DIRECTION ( 'NONE',  ( 1.000000000000000000, 0.000000000000000000, 0.000000000000000000 ) ) ;
#96 = ADVANCED_FACE ( 'NONE', ( #191 ), #72, .T. ) ;
#97 = PERSON_AND_ORGANIZATION_ROLE ( 'classification_officer' ) ;
#98 = ORIENTED_EDGE ( 'NONE', *, *, #8, .T. ) ;
#99 = CALENDAR_DATE ( 2023, 13, 2 ) ;
#100 =( GEOMETRIC_REPRESENTATION_CONTEXT ( 3 ) GLOBAL_UNCERTAINTY_ASSIGNED_CONTEXT ( ( #103 ) ) GLOBAL_UNIT_ASSIGNED_CONTEXT ( ( #153, #197, #4 ) ) REPRESENTATION_CONTEXT ( 'NONE', 'WORKASPACE' ) );
#101 = DATE_AND_TIME ( #203, #106 ) ;
#102 = CALENDAR_DATE ( 2023, 13, 2 ) ;
#103 = UNCERTAINTY_MEASURE_WITH_UNIT (LENGTH_MEASURE( 1.000000000000000082E-05 ), #153, 'distance_accuracy_value', 'NONE');
#104 = CARTESIAN_POINT ( 'NONE',  ( 0.000000000000000000, 0.000000000000000000, 7.000000000000000000 ) ) ;
#105 = ORIENTED_EDGE ( 'NONE', *, *, #193, .T. ) ;
#106 = LOCAL_TIME ( 12, 29, 12.00000000000000000, #122 ) ;
#107 = ADVANCED_FACE ( 'NONE', ( #146, #250 ), #31, .T. ) ;
#108 = DATE_AND_TIME ( #145, #115 ) ;
#109 = CIRCLE ( 'NONE', #183, 9.000000000000000000 ) ;
#110 = LINE ( 'NONE', #192, #248 ) ;
#111 = FACE_OUTER_BOUND ( 'NONE', #223, .T. ) ;
#112 = CARTESIAN_POINT ( 'NONE',  ( 9.000000000000000000, 1.102182119232617714E-15, 0.000000000000000000 ) ) ;
#113 = VERTEX_POINT ( 'NONE', #16 ) ;
#114 = DIRECTION ( 'NONE',  ( -1.000000000000000000, 0.000000000000000000, 0.000000000000000000 ) ) ;
#115 = LOCAL_TIME ( 12, 29, 12.00000000000000000, #249 ) ;
#116 = CARTESIAN_POINT ( 'NONE',  ( 0.000000000000000000, 0.000000000000000000, 250.0000000000000000 ) ) ;
#117 = CARTESIAN_POINT ( 'NONE',  ( 0.000000000000000000, 0.000000000000000000, 7.000000000000000000 ) ) ;
#118 = VERTEX_POINT ( 'NONE', #229 ) ;
#119 = AXIS2_PLACEMENT_3D ( 'NONE', #17, #172, #209 ) ;
#120 = PERSON_AND_ORGANIZATION ( #231, #46 ) ;
#121 = APPROVAL_STATUS ( 'not_yet_approved' ) ;
#122 = COORDINATED_UNIVERSAL_TIME_OFFSET ( 1, 0, .AHEAD. ) ;
#123 = APPLICATION_PROTOCOL_DEFINITION ( 'international standard', 'config_control_design', 1994, #86 ) ;
#124 = ADVANCED_FACE ( 'NONE', ( #216 ), #151, .T. ) ;
#125 = VECTOR ( 'NONE', #70, 1000.000000000000000 ) ;
#126 = VERTEX_POINT ( 'NONE', #130 ) ;
#127 = CC_DESIGN_APPROVAL ( #207, ( #33 ) ) ;
#128 = CARTESIAN_POINT ( 'NONE',  ( 0.000000000000000000, 0.000000000000000000, 250.0000000000000000 ) ) ;
#129 = DIRECTION ( 'NONE',  ( 0.000000000000000000, 0.000000000000000000, 1.000000000000000000 ) ) ;
#130 = CARTESIAN_POINT ( 'NONE',  ( -6.099999999999999645, 0.000000000000000000, 7.000000000000000000 ) ) ;
#131 = DIRECTION ( 'NONE',  ( -0.000000000000000000, -0.000000000000000000, -1.000000000000000000 ) ) ;
#132 = ADVANCED_FACE ( 'NONE', ( #218 ), #93, .T. ) ;
#133 = DIRECTION ( 'NONE',  ( 1.000000000000000000, 0.000000000000000000, 0.000000000000000000 ) ) ;
#134 = DIRECTION ( 'NONE',  ( -0.000000000000000000, -0.000000000000000000, -1.000000000000000000 ) ) ;
#135 = VECTOR ( 'NONE', #134, 1000.000000000000000 ) ;
#136 = CARTESIAN_POINT ( 'NONE',  ( -6.099999999999999645, 0.000000000000000000, 250.0000000000000000 ) ) ;
#137 = AXIS2_PLACEMENT_3D ( 'NONE', #67, #143, #64 ) ;
#138 = ORIENTED_EDGE ( 'NONE', *, *, #15, .F. ) ;
#139 = COORDINATED_UNIVERSAL_TIME_OFFSET ( 1, 0, .AHEAD. ) ;
#140 = ORIENTED_EDGE ( 'NONE', *, *, #77, .F. ) ;
#141 = CC_DESIGN_APPROVAL ( #94, ( #13 ) ) ;
#142 = EDGE_CURVE ( 'NONE', #168, #43, #251, .T. ) ;
#143 = DIRECTION ( 'NONE',  ( 0.000000000000000000, 0.000000000000000000, 1.000000000000000000 ) ) ;
#144 = ADVANCED_FACE ( 'NONE', ( #61 ), #179, .T. ) ;
#145 = CALENDAR_DATE ( 2023, 13, 2 ) ;
#146 = FACE_BOUND ( 'NONE', #57, .T. ) ;
#147 = AXIS2_PLACEMENT_3D ( 'NONE', #116, #196, #95 ) ;
#148 = AXIS2_PLACEMENT_3D ( 'NONE', #58, #24, #38 ) ;
#149 = DIRECTION ( 'NONE',  ( 1.000000000000000000, 0.000000000000000000, 0.000000000000000000 ) ) ;
#150 = CC_DESIGN_PERSON_AND_ORGANIZATION_ASSIGNMENT ( #120, #97, ( #13 ) ) ;
#151 = CYLINDRICAL_SURFACE ( 'NONE', #148, 9.000000000000000000 ) ;
#152 = CARTESIAN_POINT ( 'NONE',  ( 6.099999999999999645, 7.470345474798854293E-16, 250.0000000000000000 ) ) ;
#153 =( LENGTH_UNIT ( ) NAMED_UNIT ( * ) SI_UNIT ( .MILLI., .METRE. ) );
#154 = EDGE_LOOP ( 'NONE', ( #25, #166, #21, #187 ) ) ;
#155 = ADVANCED_BREP_SHAPE_REPRESENTATION ( '3f13', ( #159, #137 ), #100 ) ;
#156 = CARTESIAN_POINT ( 'NONE',  ( 0.000000000000000000, 0.000000000000000000, 7.000000000000000000 ) ) ;
#157 = LOCAL_TIME ( 12, 29, 12.00000000000000000, #14 ) ;
#158 = DIRECTION ( 'NONE',  ( 0.000000000000000000, 0.000000000000000000, 1.000000000000000000 ) ) ;
#159 = MANIFOLD_SOLID_BREP ( 'Pøidat vysunutím3', #68 ) ;
#160 = APPROVAL_DATE_TIME ( #101, #207 ) ;
#161 = EDGE_LOOP ( 'NONE', ( #59, #41, #45, #210 ) ) ;
#162 = DATE_TIME_ROLE ( 'classification_date' ) ;
#163 = APPROVAL_STATUS ( 'not_yet_approved' ) ;
#164 = CALENDAR_DATE ( 2023, 13, 2 ) ;
#165 = CARTESIAN_POINT ( 'NONE',  ( 0.000000000000000000, 0.000000000000000000, 0.000000000000000000 ) ) ;
#166 = ORIENTED_EDGE ( 'NONE', *, *, #85, .F. ) ;
#167 = APPROVAL_STATUS ( 'not_yet_approved' ) ;
#168 = VERTEX_POINT ( 'NONE', #112 ) ;
#169 = DIRECTION ( 'NONE',  ( 1.000000000000000000, 0.000000000000000000, 0.000000000000000000 ) ) ;
#170 = ADVANCED_FACE ( 'NONE', ( #111 ), #9, .F. ) ;
#171 = APPROVAL_PERSON_ORGANIZATION ( #205, #87, #186 ) ;
#172 = DIRECTION ( 'NONE',  ( -0.000000000000000000, -0.000000000000000000, -1.000000000000000000 ) ) ;
#173 = VERTEX_POINT ( 'NONE', #89 ) ;
#174 = CIRCLE ( 'NONE', #84, 6.099999999999999645 ) ;
#175 = AXIS2_PLACEMENT_3D ( 'NONE', #156, #178, #133 ) ;
#176 = CARTESIAN_POINT ( 'NONE',  ( 6.099999999999999645, 7.470345474798854293E-16, 250.0000000000000000 ) ) ;
#177 = VERTEX_POINT ( 'NONE', #136 ) ;
#178 = DIRECTION ( 'NONE',  ( 0.000000000000000000, 0.000000000000000000, 1.000000000000000000 ) ) ;
#179 = PLANE ( 'NONE',  #206 ) ;
#180 = AXIS2_PLACEMENT_3D ( 'NONE', #56, #194, #149 ) ;
#181 = EDGE_CURVE ( 'NONE', #173, #126, #82, .T. ) ;
#182 = PERSON_AND_ORGANIZATION_ROLE ( 'creator' ) ;
#183 = AXIS2_PLACEMENT_3D ( 'NONE', #117, #2, #91 ) ;
#184 = COORDINATED_UNIVERSAL_TIME_OFFSET ( 1, 0, .AHEAD. ) ;
#185 = ORIENTED_EDGE ( 'NONE', *, *, #39, .F. ) ;
#186 = APPROVAL_ROLE ( '' ) ;
#187 = ORIENTED_EDGE ( 'NONE', *, *, #49, .T. ) ;
#188 = AXIS2_PLACEMENT_3D ( 'NONE', #165, #201, #11 ) ;
#189 = SHAPE_DEFINITION_REPRESENTATION ( #23, #155 ) ;
#190 = DIRECTION ( 'NONE',  ( 1.000000000000000000, 0.000000000000000000, -0.000000000000000000 ) ) ;
#191 = FACE_OUTER_BOUND ( 'NONE', #247, .T. ) ;
#192 = CARTESIAN_POINT ( 'NONE',  ( -9.000000000000000000, 0.000000000000000000, 7.000000000000000000 ) ) ;
#193 = EDGE_CURVE ( 'NONE', #113, #118, #109, .T. ) ;
#194 = DIRECTION ( 'NONE',  ( 0.000000000000000000, 0.000000000000000000, 1.000000000000000000 ) ) ;
#195 = ORIENTED_EDGE ( 'NONE', *, *, #49, .F. ) ;
#196 = DIRECTION ( 'NONE',  ( 0.000000000000000000, 0.000000000000000000, 1.000000000000000000 ) ) ;
#197 =( NAMED_UNIT ( * ) PLANE_ANGLE_UNIT ( ) SI_UNIT ( $, .RADIAN. ) );
#198 = DATE_TIME_ROLE ( 'creation_date' ) ;
#199 = AXIS2_PLACEMENT_3D ( 'NONE', #75, #255, #238 ) ;
#200 = DATE_AND_TIME ( #99, #157 ) ;
#201 = DIRECTION ( 'NONE',  ( 0.000000000000000000, 0.000000000000000000, 1.000000000000000000 ) ) ;
#202 = ORIENTED_EDGE ( 'NONE', *, *, #66, .F. ) ;
#203 = CALENDAR_DATE ( 2023, 13, 2 ) ;
#204 = CIRCLE ( 'NONE', #147, 6.099999999999999645 ) ;
#205 = PERSON_AND_ORGANIZATION ( #231, #46 ) ;
#206 = AXIS2_PLACEMENT_3D ( 'NONE', #215, #233, #20 ) ;
#207 = APPROVAL ( #121, 'NEURÈENÝ' ) ;
#208 = VERTEX_POINT ( 'NONE', #176 ) ;
#209 = DIRECTION ( 'NONE',  ( -1.000000000000000000, 0.000000000000000000, 0.000000000000000000 ) ) ;
#210 = ORIENTED_EDGE ( 'NONE', *, *, #66, .T. ) ;
#211 = APPROVAL_PERSON_ORGANIZATION ( #243, #207, #241 ) ;
#212 = DIRECTION ( 'NONE',  ( 0.000000000000000000, 0.000000000000000000, 1.000000000000000000 ) ) ;
#213 = APPROVAL_ROLE ( '' ) ;
#214 = CC_DESIGN_SECURITY_CLASSIFICATION ( #13, ( #33 ) ) ;
#215 = CARTESIAN_POINT ( 'NONE',  ( 0.000000000000000000, 0.000000000000000000, 250.0000000000000000 ) ) ;
#216 = FACE_OUTER_BOUND ( 'NONE', #161, .T. ) ;
#217 = DIRECTION ( 'NONE',  ( 1.000000000000000000, 0.000000000000000000, 0.000000000000000000 ) ) ;
#218 = FACE_OUTER_BOUND ( 'NONE', #62, .T. ) ;
#219 = DIRECTION ( 'NONE',  ( 0.000000000000000000, 0.000000000000000000, 1.000000000000000000 ) ) ;
#220 = AXIS2_PLACEMENT_3D ( 'NONE', #54, #129, #22 ) ;
#221 = CC_DESIGN_PERSON_AND_ORGANIZATION_ASSIGNMENT ( #44, #65, ( #33 ) ) ;
#222 = CARTESIAN_POINT ( 'NONE',  ( 0.000000000000000000, 0.000000000000000000, 250.0000000000000000 ) ) ;
#223 = EDGE_LOOP ( 'NONE', ( #202, #18 ) ) ;
#224 = APPROVAL_DATE_TIME ( #226, #87 ) ;
#225 = CC_DESIGN_APPROVAL ( #87, ( #83 ) ) ;
#226 = DATE_AND_TIME ( #102, #63 ) ;
#227 = PERSON_AND_ORGANIZATION_ROLE ( 'design_owner' ) ;
#228 = EDGE_LOOP ( 'NONE', ( #237, #76 ) ) ;
#229 = CARTESIAN_POINT ( 'NONE',  ( 9.000000000000000000, 1.102182119232617714E-15, 7.000000000000000000 ) ) ;
#230 = DIRECTION ( 'NONE',  ( 0.000000000000000000, 0.000000000000000000, 1.000000000000000000 ) ) ;
#231 = PERSON ( 'NEURÈENÝ', 'NEURÈENÝ', 'NEURÈENÝ', ('NEURÈENÝ'), ('NEURÈENÝ'), ('NEURÈENÝ') ) ;
#232 = AXIS2_PLACEMENT_3D ( 'NONE', #104, #230, #190 ) ;
#233 = DIRECTION ( 'NONE',  ( 0.000000000000000000, 0.000000000000000000, 1.000000000000000000 ) ) ;
#234 = CARTESIAN_POINT ( 'NONE',  ( 9.000000000000000000, 1.102182119232617714E-15, 7.000000000000000000 ) ) ;
#235 = CC_DESIGN_DATE_AND_TIME_ASSIGNMENT ( #10, #162, ( #13 ) ) ;
#236 = CIRCLE ( 'NONE', #242, 9.000000000000000000 ) ;
#237 = ORIENTED_EDGE ( 'NONE', *, *, #85, .T. ) ;
#238 = DIRECTION ( 'NONE',  ( -1.000000000000000000, 0.000000000000000000, 0.000000000000000000 ) ) ;
#239 = ORIENTED_EDGE ( 'NONE', *, *, #181, .T. ) ;
#240 = PERSON_AND_ORGANIZATION ( #231, #46 ) ;
#241 = APPROVAL_ROLE ( '' ) ;
#242 = AXIS2_PLACEMENT_3D ( 'NONE', #254, #219, #217 ) ;
#243 = PERSON_AND_ORGANIZATION ( #231, #46 ) ;
#244 = DIRECTION ( 'NONE',  ( 1.000000000000000000, 0.000000000000000000, 0.000000000000000000 ) ) ;
#245 = ORIENTED_EDGE ( 'NONE', *, *, #15, .T. ) ;
#246 = CC_DESIGN_DATE_AND_TIME_ASSIGNMENT ( #200, #198, ( #83 ) ) ;
#247 = EDGE_LOOP ( 'NONE', ( #185, #98, #239, #140 ) ) ;
#248 = VECTOR ( 'NONE', #88, 1000.000000000000000 ) ;
#249 = COORDINATED_UNIVERSAL_TIME_OFFSET ( 1, 0, .AHEAD. ) ;
#250 = FACE_OUTER_BOUND ( 'NONE', #3, .T. ) ;
#251 = CIRCLE ( 'NONE', #180, 9.000000000000000000 ) ;
#252 = ADVANCED_FACE ( 'NONE', ( #40 ), #253, .T. ) ;
#253 = CYLINDRICAL_SURFACE ( 'NONE', #28, 6.099999999999999645 ) ;
#254 = CARTESIAN_POINT ( 'NONE',  ( 0.000000000000000000, 0.000000000000000000, 7.000000000000000000 ) ) ;
#255 = DIRECTION ( 'NONE',  ( -0.000000000000000000, -0.000000000000000000, -1.000000000000000000 ) ) ;
ENDSEC;
END-ISO-10303-21;
