ISO-10303-21;
HEADER;
FILE_DESCRIPTION (( 'STEP AP203' ),
    '1' );
FILE_NAME ('36d4.STEP',
    '2023-02-13T16:21:02',
    ( '' ),
    ( '' ),
    'SwSTEP 2.0',
    'SolidWorks 2019',
    '' );
FILE_SCHEMA (( 'CONFIG_CONTROL_DESIGN' ));
ENDSEC;

DATA;
#1 = ORIENTED_EDGE ( 'NONE', *, *, #84, .F. ) ;
#2 = VECTOR ( 'NONE', #6, 1000.000000000000000 ) ;
#3 = PLANE ( 'NONE',  #155 ) ;
#4 = ORIENTED_EDGE ( 'NONE', *, *, #140, .T. ) ;
#5 = MECHANICAL_CONTEXT ( 'NONE', #110, 'mechanical' ) ;
#6 = DIRECTION ( 'NONE',  ( -0.000000000000000000, -0.000000000000000000, -1.000000000000000000 ) ) ;
#7 = COORDINATED_UNIVERSAL_TIME_OFFSET ( 1, 0, .AHEAD. ) ;
#8 = VECTOR ( 'NONE', #168, 1000.000000000000000 ) ;
#9 = APPROVAL_STATUS ( 'not_yet_approved' ) ;
#10 = PERSON_AND_ORGANIZATION ( #102, #225 ) ;
#11 = VERTEX_POINT ( 'NONE', #216 ) ;
#12 = LOCAL_TIME ( 17, 21, 2.000000000000000000, #135 ) ;
#13 = CYLINDRICAL_SURFACE ( 'NONE', #208, 2.250000000000000000 ) ;
#14 = ORIENTED_EDGE ( 'NONE', *, *, #171, .F. ) ;
#15 = APPROVAL_DATE_TIME ( #32, #159 ) ;
#16 = ORIENTED_EDGE ( 'NONE', *, *, #46, .T. ) ;
#17 = ORIENTED_EDGE ( 'NONE', *, *, #96, .T. ) ;
#18 = VERTEX_POINT ( 'NONE', #173 ) ;
#19 = VERTEX_POINT ( 'NONE', #139 ) ;
#20 = EDGE_CURVE ( 'NONE', #124, #21, #82, .T. ) ;
#21 = VERTEX_POINT ( 'NONE', #63 ) ;
#22 = DIRECTION ( 'NONE',  ( 1.000000000000000000, 0.000000000000000000, 0.000000000000000000 ) ) ;
#23 = AXIS2_PLACEMENT_3D ( 'NONE', #164, #69, #241 ) ;
#24 = CARTESIAN_POINT ( 'NONE',  ( 0.000000000000000000, 0.000000000000000000, 125.0000000000000000 ) ) ;
#25 = CARTESIAN_POINT ( 'NONE',  ( 2.250000000000000000, 2.755455298081544285E-16, 125.0000000000000000 ) ) ;
#26 = SECURITY_CLASSIFICATION ( '', '', #150 ) ;
#27 = APPLICATION_PROTOCOL_DEFINITION ( 'international standard', 'config_control_design', 1994, #110 ) ;
#28 = CARTESIAN_POINT ( 'NONE',  ( 0.000000000000000000, 0.000000000000000000, 125.0000000000000000 ) ) ;
#29 = CC_DESIGN_APPROVAL ( #202, ( #85 ) ) ;
#30 = EDGE_CURVE ( 'NONE', #117, #21, #39, .T. ) ;
#31 = PERSON_AND_ORGANIZATION_ROLE ( 'creator' ) ;
#32 = DATE_AND_TIME ( #72, #151 ) ;
#33 = ORIENTED_EDGE ( 'NONE', *, *, #181, .F. ) ;
#34 = CIRCLE ( 'NONE', #196, 4.000000000000000000 ) ;
#35 = EDGE_LOOP ( 'NONE', ( #156, #17 ) ) ;
#36 = CARTESIAN_POINT ( 'NONE',  ( 0.000000000000000000, 0.000000000000000000, 0.000000000000000000 ) ) ;
#37 = APPROVAL ( #207, 'NEURÈENÝ' ) ;
#38 = CARTESIAN_POINT ( 'NONE',  ( 0.000000000000000000, 0.000000000000000000, 4.000000000000000000 ) ) ;
#39 = LINE ( 'NONE', #116, #226 ) ;
#40 = PRODUCT_DEFINITION_FORMATION_WITH_SPECIFIED_SOURCE ( 'LIBOVOLNÝ', '', #254, .NOT_KNOWN. ) ;
#41 = ORIENTED_EDGE ( 'NONE', *, *, #46, .F. ) ;
#42 = DIRECTION ( 'NONE',  ( -1.000000000000000000, 0.000000000000000000, 0.000000000000000000 ) ) ;
#43 = FACE_OUTER_BOUND ( 'NONE', #218, .T. ) ;
#44 =( LENGTH_UNIT ( ) NAMED_UNIT ( * ) SI_UNIT ( .MILLI., .METRE. ) );
#45 = AXIS2_PLACEMENT_3D ( 'NONE', #146, #223, #128 ) ;
#46 = EDGE_CURVE ( 'NONE', #11, #124, #73, .T. ) ;
#47 = DIRECTION ( 'NONE',  ( 0.000000000000000000, 0.000000000000000000, 1.000000000000000000 ) ) ;
#48 = CALENDAR_DATE ( 2023, 13, 2 ) ;
#49 = PERSON_AND_ORGANIZATION_ROLE ( 'creator' ) ;
#50 = CC_DESIGN_PERSON_AND_ORGANIZATION_ASSIGNMENT ( #149, #245, ( #26 ) ) ;
#51 = PERSON_AND_ORGANIZATION ( #102, #225 ) ;
#52 = AXIS2_PLACEMENT_3D ( 'NONE', #100, #183, #160 ) ;
#53 = DIRECTION ( 'NONE',  ( 0.000000000000000000, 0.000000000000000000, 1.000000000000000000 ) ) ;
#54 = PERSON_AND_ORGANIZATION ( #102, #225 ) ;
#55 = EDGE_LOOP ( 'NONE', ( #157, #33, #16, #98 ) ) ;
#56 = CIRCLE ( 'NONE', #242, 2.250000000000000000 ) ;
#57 = AXIS2_PLACEMENT_3D ( 'NONE', #66, #165, #80 ) ;
#58 = ADVANCED_FACE ( 'NONE', ( #211 ), #99, .T. ) ;
#59 = VERTEX_POINT ( 'NONE', #234 ) ;
#60 = LOCAL_TIME ( 17, 21, 2.000000000000000000, #114 ) ;
#61 = ORIENTED_EDGE ( 'NONE', *, *, #238, .T. ) ;
#62 = PRODUCT_DEFINITION_SHAPE ( 'NONE', 'NONE',  #85 ) ;
#63 = CARTESIAN_POINT ( 'NONE',  ( 4.000000000000000000, 4.898587196589412829E-16, 0.000000000000000000 ) ) ;
#64 = CARTESIAN_POINT ( 'NONE',  ( 0.000000000000000000, 0.000000000000000000, 0.000000000000000000 ) ) ;
#65 = CLOSED_SHELL ( 'NONE', ( #115, #158, #58, #106, #179, #131, #222 ) ) ;
#66 = CARTESIAN_POINT ( 'NONE',  ( 0.000000000000000000, 0.000000000000000000, 4.000000000000000000 ) ) ;
#67 = DIRECTION ( 'NONE',  ( -0.000000000000000000, -0.000000000000000000, -1.000000000000000000 ) ) ;
#68 = AXIS2_PLACEMENT_3D ( 'NONE', #206, #127, #103 ) ;
#69 = DIRECTION ( 'NONE',  ( -0.000000000000000000, -0.000000000000000000, -1.000000000000000000 ) ) ;
#70 = APPLICATION_PROTOCOL_DEFINITION ( 'international standard', 'config_control_design', 1994, #163 ) ;
#71 = COORDINATED_UNIVERSAL_TIME_OFFSET ( 1, 0, .AHEAD. ) ;
#72 = CALENDAR_DATE ( 2023, 13, 2 ) ;
#73 = LINE ( 'NONE', #217, #184 ) ;
#74 = DATE_AND_TIME ( #230, #209 ) ;
#75 = FACE_BOUND ( 'NONE', #195, .T. ) ;
#76 = PERSON_AND_ORGANIZATION ( #102, #225 ) ;
#77 = DIRECTION ( 'NONE',  ( -0.000000000000000000, -0.000000000000000000, -1.000000000000000000 ) ) ;
#78 = PLANE ( 'NONE',  #52 ) ;
#79 = ORIENTED_EDGE ( 'NONE', *, *, #20, .F. ) ;
#80 = DIRECTION ( 'NONE',  ( 1.000000000000000000, 0.000000000000000000, 0.000000000000000000 ) ) ;
#81 = DIRECTION ( 'NONE',  ( 1.000000000000000000, 0.000000000000000000, -0.000000000000000000 ) ) ;
#82 = CIRCLE ( 'NONE', #161, 4.000000000000000000 ) ;
#83 = FACE_OUTER_BOUND ( 'NONE', #232, .T. ) ;
#84 = EDGE_CURVE ( 'NONE', #19, #18, #123, .T. ) ;
#85 = PRODUCT_DEFINITION ( 'NEZNÁMÝ', '', #40, #105 ) ;
#86 = CARTESIAN_POINT ( 'NONE',  ( 0.000000000000000000, 0.000000000000000000, 0.000000000000000000 ) ) ;
#87 = CARTESIAN_POINT ( 'NONE',  ( 0.000000000000000000, 0.000000000000000000, 4.000000000000000000 ) ) ;
#88 = LOCAL_TIME ( 17, 21, 2.000000000000000000, #71 ) ;
#89 = DATE_TIME_ROLE ( 'classification_date' ) ;
#90 = DATE_AND_TIME ( #154, #60 ) ;
#91 = APPROVAL_DATE_TIME ( #90, #202 ) ;
#92 = ORIENTED_EDGE ( 'NONE', *, *, #140, .F. ) ;
#93 = DIRECTION ( 'NONE',  ( 0.000000000000000000, 0.000000000000000000, 1.000000000000000000 ) ) ;
#94 = PERSON_AND_ORGANIZATION ( #102, #225 ) ;
#95 = VERTEX_POINT ( 'NONE', #192 ) ;
#96 = EDGE_CURVE ( 'NONE', #117, #11, #214, .T. ) ;
#97 = APPROVAL_PERSON_ORGANIZATION ( #10, #159, #194 ) ;
#98 = ORIENTED_EDGE ( 'NONE', *, *, #20, .T. ) ;
#99 = CYLINDRICAL_SURFACE ( 'NONE', #252, 4.000000000000000000 ) ;
#100 = CARTESIAN_POINT ( 'NONE',  ( 0.000000000000000000, 0.000000000000000000, 4.000000000000000000 ) ) ;
#101 = AXIS2_PLACEMENT_3D ( 'NONE', #64, #47, #81 ) ;
#102 = PERSON ( 'NEURÈENÝ', 'NEURÈENÝ', 'NEURÈENÝ', ('NEURÈENÝ'), ('NEURÈENÝ'), ('NEURÈENÝ') ) ;
#103 = DIRECTION ( 'NONE',  ( 1.000000000000000000, 0.000000000000000000, 0.000000000000000000 ) ) ;
#104 = DIRECTION ( 'NONE',  ( 1.000000000000000000, 0.000000000000000000, 0.000000000000000000 ) ) ;
#105 = DESIGN_CONTEXT ( 'detailed design', #163, 'design' ) ;
#106 = ADVANCED_FACE ( 'NONE', ( #75, #228 ), #78, .T. ) ;
#107 = DIRECTION ( 'NONE',  ( 0.000000000000000000, 0.000000000000000000, 1.000000000000000000 ) ) ;
#108 = DIRECTION ( 'NONE',  ( 0.000000000000000000, 0.000000000000000000, 1.000000000000000000 ) ) ;
#109 = PERSON_AND_ORGANIZATION_ROLE ( 'design_owner' ) ;
#110 = APPLICATION_CONTEXT ( 'configuration controlled 3d designs of mechanical parts and assemblies' ) ;
#111 = PRODUCT_RELATED_PRODUCT_CATEGORY ( 'detail', '', ( #254 ) ) ;
#112 = AXIS2_PLACEMENT_3D ( 'NONE', #182, #53, #22 ) ;
#113 = APPROVAL_DATE_TIME ( #133, #37 ) ;
#114 = COORDINATED_UNIVERSAL_TIME_OFFSET ( 1, 0, .AHEAD. ) ;
#115 = ADVANCED_FACE ( 'NONE', ( #193 ), #13, .T. ) ;
#116 = CARTESIAN_POINT ( 'NONE',  ( 4.000000000000000000, 4.898587196589412829E-16, 4.000000000000000000 ) ) ;
#117 = VERTEX_POINT ( 'NONE', #231 ) ;
#118 = EDGE_LOOP ( 'NONE', ( #174, #186, #200, #41 ) ) ;
#119 = EDGE_LOOP ( 'NONE', ( #79, #141 ) ) ;
#120 = ORIENTED_EDGE ( 'NONE', *, *, #171, .T. ) ;
#121 = ORIENTED_EDGE ( 'NONE', *, *, #229, .F. ) ;
#122 = CC_DESIGN_DATE_AND_TIME_ASSIGNMENT ( #74, #170, ( #85 ) ) ;
#123 = CIRCLE ( 'NONE', #112, 2.250000000000000000 ) ;
#124 = VERTEX_POINT ( 'NONE', #136 ) ;
#125 = FACE_OUTER_BOUND ( 'NONE', #118, .T. ) ;
#126 = EDGE_CURVE ( 'NONE', #95, #18, #253, .T. ) ;
#127 = DIRECTION ( 'NONE',  ( 0.000000000000000000, 0.000000000000000000, 1.000000000000000000 ) ) ;
#128 = DIRECTION ( 'NONE',  ( 1.000000000000000000, 0.000000000000000000, 0.000000000000000000 ) ) ;
#129 = DIRECTION ( 'NONE',  ( 0.000000000000000000, 0.000000000000000000, 1.000000000000000000 ) ) ;
#130 = PERSON_AND_ORGANIZATION ( #102, #225 ) ;
#131 = ADVANCED_FACE ( 'NONE', ( #83 ), #147, .T. ) ;
#132 = CC_DESIGN_PERSON_AND_ORGANIZATION_ASSIGNMENT ( #94, #109, ( #254 ) ) ;
#133 = DATE_AND_TIME ( #212, #88 ) ;
#134 = CARTESIAN_POINT ( 'NONE',  ( 0.000000000000000000, 0.000000000000000000, 4.000000000000000000 ) ) ;
#135 = COORDINATED_UNIVERSAL_TIME_OFFSET ( 1, 0, .AHEAD. ) ;
#136 = CARTESIAN_POINT ( 'NONE',  ( -4.000000000000000000, 0.000000000000000000, 0.000000000000000000 ) ) ;
#137 = AXIS2_PLACEMENT_3D ( 'NONE', #86, #107, #220 ) ;
#138 = CIRCLE ( 'NONE', #137, 4.000000000000000000 ) ;
#139 = CARTESIAN_POINT ( 'NONE',  ( -2.250000000000000000, 0.000000000000000000, 4.000000000000000000 ) ) ;
#140 = EDGE_CURVE ( 'NONE', #95, #59, #56, .T. ) ;
#141 = ORIENTED_EDGE ( 'NONE', *, *, #167, .F. ) ;
#142 = EDGE_LOOP ( 'NONE', ( #92, #145, #246, #250 ) ) ;
#143 = FACE_OUTER_BOUND ( 'NONE', #119, .T. ) ;
#144 = CC_DESIGN_PERSON_AND_ORGANIZATION_ASSIGNMENT ( #54, #169, ( #40 ) ) ;
#145 = ORIENTED_EDGE ( 'NONE', *, *, #126, .T. ) ;
#146 = CARTESIAN_POINT ( 'NONE',  ( 0.000000000000000000, 0.000000000000000000, 0.000000000000000000 ) ) ;
#147 = CYLINDRICAL_SURFACE ( 'NONE', #23, 2.250000000000000000 ) ;
#148 = CARTESIAN_POINT ( 'NONE',  ( 0.000000000000000000, 0.000000000000000000, 4.000000000000000000 ) ) ;
#149 = PERSON_AND_ORGANIZATION ( #102, #225 ) ;
#150 = SECURITY_CLASSIFICATION_LEVEL ( 'unclassified' ) ;
#151 = LOCAL_TIME ( 17, 21, 2.000000000000000000, #7 ) ;
#152 = DIRECTION ( 'NONE',  ( 1.000000000000000000, 0.000000000000000000, 0.000000000000000000 ) ) ;
#153 = DIRECTION ( 'NONE',  ( -1.000000000000000000, 0.000000000000000000, 0.000000000000000000 ) ) ;
#154 = CALENDAR_DATE ( 2023, 13, 2 ) ;
#155 = AXIS2_PLACEMENT_3D ( 'NONE', #28, #108, #166 ) ;
#156 = ORIENTED_EDGE ( 'NONE', *, *, #181, .T. ) ;
#157 = ORIENTED_EDGE ( 'NONE', *, *, #30, .F. ) ;
#158 = ADVANCED_FACE ( 'NONE', ( #125 ), #224, .T. ) ;
#159 = APPROVAL ( #176, 'NEURÈENÝ' ) ;
#160 = DIRECTION ( 'NONE',  ( 1.000000000000000000, 0.000000000000000000, -0.000000000000000000 ) ) ;
#161 = AXIS2_PLACEMENT_3D ( 'NONE', #36, #93, #180 ) ;
#162 = DIRECTION ( 'NONE',  ( -0.000000000000000000, -0.000000000000000000, -1.000000000000000000 ) ) ;
#163 = APPLICATION_CONTEXT ( 'configuration controlled 3d designs of mechanical parts and assemblies' ) ;
#164 = CARTESIAN_POINT ( 'NONE',  ( 0.000000000000000000, 0.000000000000000000, 125.0000000000000000 ) ) ;
#165 = DIRECTION ( 'NONE',  ( 0.000000000000000000, 0.000000000000000000, 1.000000000000000000 ) ) ;
#166 = DIRECTION ( 'NONE',  ( 1.000000000000000000, 0.000000000000000000, -0.000000000000000000 ) ) ;
#167 = EDGE_CURVE ( 'NONE', #21, #124, #138, .T. ) ;
#168 = DIRECTION ( 'NONE',  ( -0.000000000000000000, -0.000000000000000000, -1.000000000000000000 ) ) ;
#169 = PERSON_AND_ORGANIZATION_ROLE ( 'design_supplier' ) ;
#170 = DATE_TIME_ROLE ( 'creation_date' ) ;
#171 = EDGE_CURVE ( 'NONE', #59, #95, #178, .T. ) ;
#172 = SHAPE_DEFINITION_REPRESENTATION ( #62, #221 ) ;
#173 = CARTESIAN_POINT ( 'NONE',  ( 2.250000000000000000, 2.755455298081544285E-16, 4.000000000000000000 ) ) ;
#174 = ORIENTED_EDGE ( 'NONE', *, *, #96, .F. ) ;
#175 = CC_DESIGN_SECURITY_CLASSIFICATION ( #26, ( #40 ) ) ;
#176 = APPROVAL_STATUS ( 'not_yet_approved' ) ;
#177 = DIRECTION ( 'NONE',  ( -0.000000000000000000, -0.000000000000000000, -1.000000000000000000 ) ) ;
#178 = CIRCLE ( 'NONE', #68, 2.250000000000000000 ) ;
#179 = ADVANCED_FACE ( 'NONE', ( #143 ), #187, .F. ) ;
#180 = DIRECTION ( 'NONE',  ( 1.000000000000000000, 0.000000000000000000, 0.000000000000000000 ) ) ;
#181 = EDGE_CURVE ( 'NONE', #11, #117, #34, .T. ) ;
#182 = CARTESIAN_POINT ( 'NONE',  ( 0.000000000000000000, 0.000000000000000000, 4.000000000000000000 ) ) ;
#183 = DIRECTION ( 'NONE',  ( 0.000000000000000000, 0.000000000000000000, 1.000000000000000000 ) ) ;
#184 = VECTOR ( 'NONE', #197, 1000.000000000000000 ) ;
#185 = LINE ( 'NONE', #188, #8 ) ;
#186 = ORIENTED_EDGE ( 'NONE', *, *, #30, .T. ) ;
#187 = PLANE ( 'NONE',  #101 ) ;
#188 = CARTESIAN_POINT ( 'NONE',  ( -2.250000000000000000, 0.000000000000000000, 125.0000000000000000 ) ) ;
#189 = CC_DESIGN_APPROVAL ( #37, ( #26 ) ) ;
#190 = CC_DESIGN_PERSON_AND_ORGANIZATION_ASSIGNMENT ( #76, #31, ( #40 ) ) ;
#191 = APPROVAL_ROLE ( '' ) ;
#192 = CARTESIAN_POINT ( 'NONE',  ( 2.250000000000000000, 2.755455298081544285E-16, 125.0000000000000000 ) ) ;
#193 = FACE_OUTER_BOUND ( 'NONE', #142, .T. ) ;
#194 = APPROVAL_ROLE ( '' ) ;
#195 = EDGE_LOOP ( 'NONE', ( #1, #121 ) ) ;
#196 = AXIS2_PLACEMENT_3D ( 'NONE', #148, #129, #236 ) ;
#197 = DIRECTION ( 'NONE',  ( -0.000000000000000000, -0.000000000000000000, -1.000000000000000000 ) ) ;
#198 = DIRECTION ( 'NONE',  ( -1.000000000000000000, 0.000000000000000000, 0.000000000000000000 ) ) ;
#199 =( NAMED_UNIT ( * ) SI_UNIT ( $, .STERADIAN. ) SOLID_ANGLE_UNIT ( ) );
#200 = ORIENTED_EDGE ( 'NONE', *, *, #167, .T. ) ;
#201 = UNCERTAINTY_MEASURE_WITH_UNIT (LENGTH_MEASURE( 1.000000000000000082E-05 ), #44, 'distance_accuracy_value', 'NONE');
#202 = APPROVAL ( #9, 'NEURÈENÝ' ) ;
#203 = DIRECTION ( 'NONE',  ( 0.000000000000000000, 0.000000000000000000, 1.000000000000000000 ) ) ;
#204 = APPROVAL_PERSON_ORGANIZATION ( #51, #202, #191 ) ;
#205 = APPROVAL_PERSON_ORGANIZATION ( #130, #37, #248 ) ;
#206 = CARTESIAN_POINT ( 'NONE',  ( 0.000000000000000000, 0.000000000000000000, 125.0000000000000000 ) ) ;
#207 = APPROVAL_STATUS ( 'not_yet_approved' ) ;
#208 = AXIS2_PLACEMENT_3D ( 'NONE', #233, #177, #153 ) ;
#209 = LOCAL_TIME ( 17, 21, 2.000000000000000000, #244 ) ;
#210 = PERSON_AND_ORGANIZATION ( #102, #225 ) ;
#211 = FACE_OUTER_BOUND ( 'NONE', #55, .T. ) ;
#212 = CALENDAR_DATE ( 2023, 13, 2 ) ;
#213 = ORIENTED_EDGE ( 'NONE', *, *, #84, .T. ) ;
#214 = CIRCLE ( 'NONE', #249, 4.000000000000000000 ) ;
#215 = CIRCLE ( 'NONE', #57, 2.250000000000000000 ) ;
#216 = CARTESIAN_POINT ( 'NONE',  ( -4.000000000000000000, 0.000000000000000000, 4.000000000000000000 ) ) ;
#217 = CARTESIAN_POINT ( 'NONE',  ( -4.000000000000000000, 0.000000000000000000, 4.000000000000000000 ) ) ;
#218 = EDGE_LOOP ( 'NONE', ( #120, #4 ) ) ;
#219 =( GEOMETRIC_REPRESENTATION_CONTEXT ( 3 ) GLOBAL_UNCERTAINTY_ASSIGNED_CONTEXT ( ( #201 ) ) GLOBAL_UNIT_ASSIGNED_CONTEXT ( ( #44, #240, #199 ) ) REPRESENTATION_CONTEXT ( 'NONE', 'WORKASPACE' ) );
#220 = DIRECTION ( 'NONE',  ( 1.000000000000000000, 0.000000000000000000, 0.000000000000000000 ) ) ;
#221 = ADVANCED_BREP_SHAPE_REPRESENTATION ( '36d4', ( #239, #45 ), #219 ) ;
#222 = ADVANCED_FACE ( 'NONE', ( #43 ), #3, .T. ) ;
#223 = DIRECTION ( 'NONE',  ( 0.000000000000000000, 0.000000000000000000, 1.000000000000000000 ) ) ;
#224 = CYLINDRICAL_SURFACE ( 'NONE', #243, 4.000000000000000000 ) ;
#225 = ORGANIZATION ( 'NEURÈENÝ', 'NEURÈENÝ', '' ) ;
#226 = VECTOR ( 'NONE', #77, 1000.000000000000000 ) ;
#227 = DATE_AND_TIME ( #48, #12 ) ;
#228 = FACE_OUTER_BOUND ( 'NONE', #35, .T. ) ;
#229 = EDGE_CURVE ( 'NONE', #18, #19, #215, .T. ) ;
#230 = CALENDAR_DATE ( 2023, 13, 2 ) ;
#231 = CARTESIAN_POINT ( 'NONE',  ( 4.000000000000000000, 4.898587196589412829E-16, 4.000000000000000000 ) ) ;
#232 = EDGE_LOOP ( 'NONE', ( #247, #14, #61, #213 ) ) ;
#233 = CARTESIAN_POINT ( 'NONE',  ( 0.000000000000000000, 0.000000000000000000, 125.0000000000000000 ) ) ;
#234 = CARTESIAN_POINT ( 'NONE',  ( -2.250000000000000000, 0.000000000000000000, 125.0000000000000000 ) ) ;
#235 = CC_DESIGN_APPROVAL ( #159, ( #40 ) ) ;
#236 = DIRECTION ( 'NONE',  ( 1.000000000000000000, 0.000000000000000000, 0.000000000000000000 ) ) ;
#237 = CC_DESIGN_PERSON_AND_ORGANIZATION_ASSIGNMENT ( #210, #49, ( #85 ) ) ;
#238 = EDGE_CURVE ( 'NONE', #59, #19, #185, .T. ) ;
#239 = MANIFOLD_SOLID_BREP ( 'Pøidat vysunutím3', #65 ) ;
#240 =( NAMED_UNIT ( * ) PLANE_ANGLE_UNIT ( ) SI_UNIT ( $, .RADIAN. ) );
#241 = DIRECTION ( 'NONE',  ( -1.000000000000000000, 0.000000000000000000, 0.000000000000000000 ) ) ;
#242 = AXIS2_PLACEMENT_3D ( 'NONE', #24, #203, #104 ) ;
#243 = AXIS2_PLACEMENT_3D ( 'NONE', #87, #67, #42 ) ;
#244 = COORDINATED_UNIVERSAL_TIME_OFFSET ( 1, 0, .AHEAD. ) ;
#245 = PERSON_AND_ORGANIZATION_ROLE ( 'classification_officer' ) ;
#246 = ORIENTED_EDGE ( 'NONE', *, *, #229, .T. ) ;
#247 = ORIENTED_EDGE ( 'NONE', *, *, #126, .F. ) ;
#248 = APPROVAL_ROLE ( '' ) ;
#249 = AXIS2_PLACEMENT_3D ( 'NONE', #134, #251, #152 ) ;
#250 = ORIENTED_EDGE ( 'NONE', *, *, #238, .F. ) ;
#251 = DIRECTION ( 'NONE',  ( 0.000000000000000000, 0.000000000000000000, 1.000000000000000000 ) ) ;
#252 = AXIS2_PLACEMENT_3D ( 'NONE', #38, #162, #198 ) ;
#253 = LINE ( 'NONE', #25, #2 ) ;
#254 = PRODUCT ( '36d4', '36d4', '', ( #5 ) ) ;
#255 = CC_DESIGN_DATE_AND_TIME_ASSIGNMENT ( #227, #89, ( #26 ) ) ;
ENDSEC;
END-ISO-10303-21;
