ISO-10303-21;
HEADER;
FILE_DESCRIPTION (( 'STEP AP203' ),
    '1' );
FILE_NAME ('b898.STEP',
    '2023-02-13T15:18:50',
    ( '' ),
    ( '' ),
    'SwSTEP 2.0',
    'SolidWorks 2019',
    '' );
FILE_SCHEMA (( 'CONFIG_CONTROL_DESIGN' ));
ENDSEC;

DATA;
#1 = DIRECTION ( 'NONE',  ( 0.000000000000000000, 0.000000000000000000, 1.000000000000000000 ) ) ;
#2 = FACE_OUTER_BOUND ( 'NONE', #106, .T. ) ;
#3 = LOCAL_TIME ( 16, 18, 50.00000000000000000, #75 ) ;
#4 = ORIENTED_EDGE ( 'NONE', *, *, #58, .T. ) ;
#5 = EDGE_CURVE ( 'NONE', #201, #181, #150, .T. ) ;
#6 = DIRECTION ( 'NONE',  ( 0.000000000000000000, 0.000000000000000000, 1.000000000000000000 ) ) ;
#7 = CARTESIAN_POINT ( 'NONE',  ( 0.000000000000000000, 0.000000000000000000, 5.000000000000000000 ) ) ;
#8 = DATE_TIME_ROLE ( 'creation_date' ) ;
#9 =( NAMED_UNIT ( * ) SI_UNIT ( $, .STERADIAN. ) SOLID_ANGLE_UNIT ( ) );
#10 = AXIS2_PLACEMENT_3D ( 'NONE', #98, #193, #236 ) ;
#11 = SECURITY_CLASSIFICATION ( '', '', #208 ) ;
#12 = APPROVAL_DATE_TIME ( #148, #80 ) ;
#13 = DATE_AND_TIME ( #188, #132 ) ;
#14 = APPROVAL_STATUS ( 'not_yet_approved' ) ;
#15 = APPROVAL ( #48, 'NEURÈENÝ' ) ;
#16 = FACE_OUTER_BOUND ( 'NONE', #97, .T. ) ;
#17 = AXIS2_PLACEMENT_3D ( 'NONE', #40, #174, #162 ) ;
#18 = CC_DESIGN_APPROVAL ( #39, ( #11 ) ) ;
#19 = EDGE_CURVE ( 'NONE', #232, #103, #197, .T. ) ;
#20 = DIRECTION ( 'NONE',  ( -0.000000000000000000, -0.000000000000000000, -1.000000000000000000 ) ) ;
#21 = DIRECTION ( 'NONE',  ( -1.000000000000000000, 0.000000000000000000, 0.000000000000000000 ) ) ;
#22 = VECTOR ( 'NONE', #20, 1000.000000000000000 ) ;
#23 = CARTESIAN_POINT ( 'NONE',  ( 3.100000000000000089, 3.796405077356794918E-16, 5.000000000000000000 ) ) ;
#24 = CARTESIAN_POINT ( 'NONE',  ( -3.100000000000000089, 0.000000000000000000, 5.000000000000000000 ) ) ;
#25 = PERSON ( 'NEURÈENÝ', 'NEURÈENÝ', 'NEURÈENÝ', ('NEURÈENÝ'), ('NEURÈENÝ'), ('NEURÈENÝ') ) ;
#26 = ORIENTED_EDGE ( 'NONE', *, *, #149, .F. ) ;
#27 = DIRECTION ( 'NONE',  ( 0.000000000000000000, 0.000000000000000000, 1.000000000000000000 ) ) ;
#28 = CARTESIAN_POINT ( 'NONE',  ( 0.000000000000000000, 0.000000000000000000, 5.000000000000000000 ) ) ;
#29 = ADVANCED_FACE ( 'NONE', ( #100 ), #88, .F. ) ;
#30 = APPROVAL_DATE_TIME ( #227, #15 ) ;
#31 = PERSON_AND_ORGANIZATION ( #25, #111 ) ;
#32 = PERSON_AND_ORGANIZATION ( #25, #111 ) ;
#33 = APPROVAL_ROLE ( '' ) ;
#34 = CARTESIAN_POINT ( 'NONE',  ( -6.000000000000000888, 0.000000000000000000, 0.000000000000000000 ) ) ;
#35 = APPLICATION_CONTEXT ( 'configuration controlled 3d designs of mechanical parts and assemblies' ) ;
#36 = PERSON_AND_ORGANIZATION ( #25, #111 ) ;
#37 = CARTESIAN_POINT ( 'NONE',  ( -6.000000000000000888, 0.000000000000000000, 5.000000000000000000 ) ) ;
#38 = CIRCLE ( 'NONE', #82, 3.100000000000000089 ) ;
#39 = APPROVAL ( #211, 'NEURÈENÝ' ) ;
#40 = CARTESIAN_POINT ( 'NONE',  ( 0.000000000000000000, 0.000000000000000000, 500.0000000000000000 ) ) ;
#41 = CARTESIAN_POINT ( 'NONE',  ( 3.100000000000000089, 3.796405077356794918E-16, 500.0000000000000000 ) ) ;
#42 = ORIENTED_EDGE ( 'NONE', *, *, #120, .F. ) ;
#43 = ORIENTED_EDGE ( 'NONE', *, *, #134, .T. ) ;
#44 = EDGE_LOOP ( 'NONE', ( #70, #42, #50, #180 ) ) ;
#45 = AXIS2_PLACEMENT_3D ( 'NONE', #255, #233, #169 ) ;
#46 = ADVANCED_FACE ( 'NONE', ( #137 ), #119, .T. ) ;
#47 = EDGE_CURVE ( 'NONE', #163, #112, #246, .T. ) ;
#48 = APPROVAL_STATUS ( 'not_yet_approved' ) ;
#49 = APPROVAL_PERSON_ORGANIZATION ( #129, #15, #152 ) ;
#50 = ORIENTED_EDGE ( 'NONE', *, *, #19, .T. ) ;
#51 = PERSON_AND_ORGANIZATION_ROLE ( 'creator' ) ;
#52 = DIRECTION ( 'NONE',  ( -0.000000000000000000, -0.000000000000000000, -1.000000000000000000 ) ) ;
#53 = DIRECTION ( 'NONE',  ( 1.000000000000000000, 0.000000000000000000, -0.000000000000000000 ) ) ;
#54 = APPROVAL_ROLE ( '' ) ;
#55 = DATE_AND_TIME ( #154, #3 ) ;
#56 = CARTESIAN_POINT ( 'NONE',  ( -3.100000000000000089, 0.000000000000000000, 500.0000000000000000 ) ) ;
#57 = AXIS2_PLACEMENT_3D ( 'NONE', #157, #52, #61 ) ;
#58 = EDGE_CURVE ( 'NONE', #220, #135, #192, .T. ) ;
#59 = LOCAL_TIME ( 16, 18, 50.00000000000000000, #91 ) ;
#60 = ORIENTED_EDGE ( 'NONE', *, *, #199, .T. ) ;
#61 = DIRECTION ( 'NONE',  ( -1.000000000000000000, 0.000000000000000000, 0.000000000000000000 ) ) ;
#62 = EDGE_CURVE ( 'NONE', #201, #112, #116, .T. ) ;
#63 = ORIENTED_EDGE ( 'NONE', *, *, #5, .F. ) ;
#64 = DIRECTION ( 'NONE',  ( 0.000000000000000000, 0.000000000000000000, 1.000000000000000000 ) ) ;
#65 = CARTESIAN_POINT ( 'NONE',  ( -3.100000000000000089, 0.000000000000000000, 500.0000000000000000 ) ) ;
#66 = ORIENTED_EDGE ( 'NONE', *, *, #149, .T. ) ;
#67 = CYLINDRICAL_SURFACE ( 'NONE', #85, 6.000000000000000888 ) ;
#68 = AXIS2_PLACEMENT_3D ( 'NONE', #28, #64, #86 ) ;
#69 = LOCAL_TIME ( 16, 18, 50.00000000000000000, #214 ) ;
#70 = ORIENTED_EDGE ( 'NONE', *, *, #58, .F. ) ;
#71 = PERSON_AND_ORGANIZATION_ROLE ( 'design_owner' ) ;
#72 = PERSON_AND_ORGANIZATION ( #25, #111 ) ;
#73 = PRODUCT ( 'b898', 'b898', '', ( #249 ) ) ;
#74 = PERSON_AND_ORGANIZATION_ROLE ( 'design_supplier' ) ;
#75 = COORDINATED_UNIVERSAL_TIME_OFFSET ( 1, 0, .AHEAD. ) ;
#76 = CARTESIAN_POINT ( 'NONE',  ( 0.000000000000000000, 0.000000000000000000, 500.0000000000000000 ) ) ;
#77 = SHAPE_DEFINITION_REPRESENTATION ( #136, #202 ) ;
#78 = CARTESIAN_POINT ( 'NONE',  ( 0.000000000000000000, 0.000000000000000000, 5.000000000000000000 ) ) ;
#79 = CARTESIAN_POINT ( 'NONE',  ( 3.100000000000000089, 3.796405077356794918E-16, 500.0000000000000000 ) ) ;
#80 = APPROVAL ( #14, 'NEURÈENÝ' ) ;
#81 = FACE_OUTER_BOUND ( 'NONE', #44, .T. ) ;
#82 = AXIS2_PLACEMENT_3D ( 'NONE', #7, #27, #223 ) ;
#83 = ORIENTED_EDGE ( 'NONE', *, *, #146, .F. ) ;
#84 =( LENGTH_UNIT ( ) NAMED_UNIT ( * ) SI_UNIT ( .MILLI., .METRE. ) );
#85 = AXIS2_PLACEMENT_3D ( 'NONE', #166, #92, #21 ) ;
#86 = DIRECTION ( 'NONE',  ( 1.000000000000000000, 0.000000000000000000, 0.000000000000000000 ) ) ;
#87 = DIRECTION ( 'NONE',  ( -1.000000000000000000, 0.000000000000000000, 0.000000000000000000 ) ) ;
#88 = PLANE ( 'NONE',  #179 ) ;
#89 = ADVANCED_FACE ( 'NONE', ( #16 ), #252, .T. ) ;
#90 = CIRCLE ( 'NONE', #235, 6.000000000000000888 ) ;
#91 = COORDINATED_UNIVERSAL_TIME_OFFSET ( 1, 0, .AHEAD. ) ;
#92 = DIRECTION ( 'NONE',  ( -0.000000000000000000, -0.000000000000000000, -1.000000000000000000 ) ) ;
#93 = APPROVAL_DATE_TIME ( #13, #39 ) ;
#94 = DESIGN_CONTEXT ( 'detailed design', #35, 'design' ) ;
#95 = CARTESIAN_POINT ( 'NONE',  ( 0.000000000000000000, 0.000000000000000000, 500.0000000000000000 ) ) ;
#96 = ADVANCED_FACE ( 'NONE', ( #81 ), #216, .T. ) ;
#97 = EDGE_LOOP ( 'NONE', ( #139, #60 ) ) ;
#98 = CARTESIAN_POINT ( 'NONE',  ( 0.000000000000000000, 0.000000000000000000, 5.000000000000000000 ) ) ;
#99 = EDGE_LOOP ( 'NONE', ( #126, #124, #43, #210 ) ) ;
#100 = FACE_OUTER_BOUND ( 'NONE', #206, .T. ) ;
#101 = LINE ( 'NONE', #165, #176 ) ;
#102 = FACE_BOUND ( 'NONE', #189, .T. ) ;
#103 = VERTEX_POINT ( 'NONE', #24 ) ;
#104 = VECTOR ( 'NONE', #194, 1000.000000000000000 ) ;
#105 = APPROVAL_PERSON_ORGANIZATION ( #107, #80, #54 ) ;
#106 = EDGE_LOOP ( 'NONE', ( #127, #198 ) ) ;
#107 = PERSON_AND_ORGANIZATION ( #25, #111 ) ;
#108 = ADVANCED_FACE ( 'NONE', ( #245 ), #67, .T. ) ;
#109 = AXIS2_PLACEMENT_3D ( 'NONE', #95, #153, #87 ) ;
#110 = PERSON_AND_ORGANIZATION ( #25, #111 ) ;
#111 = ORGANIZATION ( 'NEURÈENÝ', 'NEURÈENÝ', '' ) ;
#112 = VERTEX_POINT ( 'NONE', #221 ) ;
#113 = COORDINATED_UNIVERSAL_TIME_OFFSET ( 1, 0, .AHEAD. ) ;
#114 = CARTESIAN_POINT ( 'NONE',  ( 0.000000000000000000, 0.000000000000000000, 0.000000000000000000 ) ) ;
#115 = AXIS2_PLACEMENT_3D ( 'NONE', #167, #244, #125 ) ;
#116 = LINE ( 'NONE', #158, #104 ) ;
#117 = DIRECTION ( 'NONE',  ( -0.000000000000000000, -0.000000000000000000, -1.000000000000000000 ) ) ;
#118 = CC_DESIGN_DATE_AND_TIME_ASSIGNMENT ( #207, #8, ( #209 ) ) ;
#119 = CYLINDRICAL_SURFACE ( 'NONE', #57, 6.000000000000000888 ) ;
#120 = EDGE_CURVE ( 'NONE', #232, #220, #226, .T. ) ;
#121 = CIRCLE ( 'NONE', #10, 3.100000000000000089 ) ;
#122 = CIRCLE ( 'NONE', #17, 3.100000000000000089 ) ;
#123 = PRODUCT_DEFINITION_FORMATION_WITH_SPECIFIED_SOURCE ( 'LIBOVOLNÝ', '', #73, .NOT_KNOWN. ) ;
#124 = ORIENTED_EDGE ( 'NONE', *, *, #196, .F. ) ;
#125 = DIRECTION ( 'NONE',  ( 1.000000000000000000, 0.000000000000000000, 0.000000000000000000 ) ) ;
#126 = ORIENTED_EDGE ( 'NONE', *, *, #62, .F. ) ;
#127 = ORIENTED_EDGE ( 'NONE', *, *, #196, .T. ) ;
#128 = FACE_OUTER_BOUND ( 'NONE', #218, .T. ) ;
#129 = PERSON_AND_ORGANIZATION ( #25, #111 ) ;
#130 = AXIS2_PLACEMENT_3D ( 'NONE', #195, #1, #172 ) ;
#131 = DATE_TIME_ROLE ( 'classification_date' ) ;
#132 = LOCAL_TIME ( 16, 18, 50.00000000000000000, #113 ) ;
#133 = DIRECTION ( 'NONE',  ( 0.000000000000000000, 0.000000000000000000, 1.000000000000000000 ) ) ;
#134 = EDGE_CURVE ( 'NONE', #181, #163, #101, .T. ) ;
#135 = VERTEX_POINT ( 'NONE', #23 ) ;
#136 = PRODUCT_DEFINITION_SHAPE ( 'NONE', 'NONE',  #209 ) ;
#137 = FACE_OUTER_BOUND ( 'NONE', #99, .T. ) ;
#138 = UNCERTAINTY_MEASURE_WITH_UNIT (LENGTH_MEASURE( 1.000000000000000082E-05 ), #84, 'distance_accuracy_value', 'NONE');
#139 = ORIENTED_EDGE ( 'NONE', *, *, #120, .T. ) ;
#140 = AXIS2_PLACEMENT_3D ( 'NONE', #76, #155, #173 ) ;
#141 = CC_DESIGN_PERSON_AND_ORGANIZATION_ASSIGNMENT ( #110, #251, ( #11 ) ) ;
#142 = DIRECTION ( 'NONE',  ( 0.000000000000000000, 0.000000000000000000, 1.000000000000000000 ) ) ;
#143 = ORIENTED_EDGE ( 'NONE', *, *, #47, .F. ) ;
#144 = APPROVAL_PERSON_ORGANIZATION ( #36, #39, #33 ) ;
#145 = APPLICATION_CONTEXT ( 'configuration controlled 3d designs of mechanical parts and assemblies' ) ;
#146 = EDGE_CURVE ( 'NONE', #135, #103, #38, .T. ) ;
#147 = ORIENTED_EDGE ( 'NONE', *, *, #217, .F. ) ;
#148 = DATE_AND_TIME ( #156, #69 ) ;
#149 = EDGE_CURVE ( 'NONE', #112, #163, #234, .T. ) ;
#150 = CIRCLE ( 'NONE', #68, 6.000000000000000888 ) ;
#151 = PERSON_AND_ORGANIZATION ( #25, #111 ) ;
#152 = APPROVAL_ROLE ( '' ) ;
#153 = DIRECTION ( 'NONE',  ( -0.000000000000000000, -0.000000000000000000, -1.000000000000000000 ) ) ;
#154 = CALENDAR_DATE ( 2023, 13, 2 ) ;
#155 = DIRECTION ( 'NONE',  ( 0.000000000000000000, 0.000000000000000000, 1.000000000000000000 ) ) ;
#156 = CALENDAR_DATE ( 2023, 13, 2 ) ;
#157 = CARTESIAN_POINT ( 'NONE',  ( 0.000000000000000000, 0.000000000000000000, 5.000000000000000000 ) ) ;
#158 = CARTESIAN_POINT ( 'NONE',  ( 6.000000000000000888, 7.347880794884120722E-16, 5.000000000000000000 ) ) ;
#159 = DIRECTION ( 'NONE',  ( 1.000000000000000000, 0.000000000000000000, 0.000000000000000000 ) ) ;
#160 = CC_DESIGN_DATE_AND_TIME_ASSIGNMENT ( #55, #131, ( #11 ) ) ;
#161 = AXIS2_PLACEMENT_3D ( 'NONE', #204, #6, #185 ) ;
#162 = DIRECTION ( 'NONE',  ( 1.000000000000000000, 0.000000000000000000, 0.000000000000000000 ) ) ;
#163 = VERTEX_POINT ( 'NONE', #34 ) ;
#164 =( GEOMETRIC_REPRESENTATION_CONTEXT ( 3 ) GLOBAL_UNCERTAINTY_ASSIGNED_CONTEXT ( ( #138 ) ) GLOBAL_UNIT_ASSIGNED_CONTEXT ( ( #84, #205, #9 ) ) REPRESENTATION_CONTEXT ( 'NONE', 'WORKASPACE' ) );
#165 = CARTESIAN_POINT ( 'NONE',  ( -6.000000000000000888, 0.000000000000000000, 5.000000000000000000 ) ) ;
#166 = CARTESIAN_POINT ( 'NONE',  ( 0.000000000000000000, 0.000000000000000000, 5.000000000000000000 ) ) ;
#167 = CARTESIAN_POINT ( 'NONE',  ( 0.000000000000000000, 0.000000000000000000, 500.0000000000000000 ) ) ;
#168 = CC_DESIGN_PERSON_AND_ORGANIZATION_ASSIGNMENT ( #32, #71, ( #73 ) ) ;
#169 = DIRECTION ( 'NONE',  ( -1.000000000000000000, 0.000000000000000000, 0.000000000000000000 ) ) ;
#170 = CALENDAR_DATE ( 2023, 13, 2 ) ;
#171 = COORDINATED_UNIVERSAL_TIME_OFFSET ( 1, 0, .AHEAD. ) ;
#172 = DIRECTION ( 'NONE',  ( 1.000000000000000000, 0.000000000000000000, 0.000000000000000000 ) ) ;
#173 = DIRECTION ( 'NONE',  ( 1.000000000000000000, 0.000000000000000000, -0.000000000000000000 ) ) ;
#174 = DIRECTION ( 'NONE',  ( 0.000000000000000000, 0.000000000000000000, 1.000000000000000000 ) ) ;
#175 = LOCAL_TIME ( 16, 18, 50.00000000000000000, #171 ) ;
#176 = VECTOR ( 'NONE', #178, 1000.000000000000000 ) ;
#177 = CC_DESIGN_APPROVAL ( #15, ( #123 ) ) ;
#178 = DIRECTION ( 'NONE',  ( -0.000000000000000000, -0.000000000000000000, -1.000000000000000000 ) ) ;
#179 = AXIS2_PLACEMENT_3D ( 'NONE', #203, #142, #53 ) ;
#180 = ORIENTED_EDGE ( 'NONE', *, *, #217, .T. ) ;
#181 = VERTEX_POINT ( 'NONE', #37 ) ;
#182 = CC_DESIGN_PERSON_AND_ORGANIZATION_ASSIGNMENT ( #31, #74, ( #123 ) ) ;
#183 = CARTESIAN_POINT ( 'NONE',  ( 0.000000000000000000, 0.000000000000000000, 0.000000000000000000 ) ) ;
#184 = APPLICATION_PROTOCOL_DEFINITION ( 'international standard', 'config_control_design', 1994, #145 ) ;
#185 = DIRECTION ( 'NONE',  ( 1.000000000000000000, 0.000000000000000000, -0.000000000000000000 ) ) ;
#186 = ORIENTED_EDGE ( 'NONE', *, *, #62, .T. ) ;
#187 = APPLICATION_PROTOCOL_DEFINITION ( 'international standard', 'config_control_design', 1994, #35 ) ;
#188 = CALENDAR_DATE ( 2023, 13, 2 ) ;
#189 = EDGE_LOOP ( 'NONE', ( #147, #83 ) ) ;
#190 = DIRECTION ( 'NONE',  ( 1.000000000000000000, 0.000000000000000000, 0.000000000000000000 ) ) ;
#191 = DIRECTION ( 'NONE',  ( 0.000000000000000000, 0.000000000000000000, 1.000000000000000000 ) ) ;
#192 = LINE ( 'NONE', #79, #242 ) ;
#193 = DIRECTION ( 'NONE',  ( 0.000000000000000000, 0.000000000000000000, 1.000000000000000000 ) ) ;
#194 = DIRECTION ( 'NONE',  ( -0.000000000000000000, -0.000000000000000000, -1.000000000000000000 ) ) ;
#195 = CARTESIAN_POINT ( 'NONE',  ( 0.000000000000000000, 0.000000000000000000, 0.000000000000000000 ) ) ;
#196 = EDGE_CURVE ( 'NONE', #181, #201, #90, .T. ) ;
#197 = LINE ( 'NONE', #65, #22 ) ;
#198 = ORIENTED_EDGE ( 'NONE', *, *, #5, .T. ) ;
#199 = EDGE_CURVE ( 'NONE', #220, #232, #122, .T. ) ;
#200 = AXIS2_PLACEMENT_3D ( 'NONE', #183, #133, #212 ) ;
#201 = VERTEX_POINT ( 'NONE', #224 ) ;
#202 = ADVANCED_BREP_SHAPE_REPRESENTATION ( 'b898', ( #238, #222 ), #164 ) ;
#203 = CARTESIAN_POINT ( 'NONE',  ( 0.000000000000000000, 0.000000000000000000, 0.000000000000000000 ) ) ;
#204 = CARTESIAN_POINT ( 'NONE',  ( 0.000000000000000000, 0.000000000000000000, 5.000000000000000000 ) ) ;
#205 =( NAMED_UNIT ( * ) PLANE_ANGLE_UNIT ( ) SI_UNIT ( $, .RADIAN. ) );
#206 = EDGE_LOOP ( 'NONE', ( #143, #26 ) ) ;
#207 = DATE_AND_TIME ( #230, #59 ) ;
#208 = SECURITY_CLASSIFICATION_LEVEL ( 'unclassified' ) ;
#209 = PRODUCT_DEFINITION ( 'NEZNÁMÝ', '', #123, #94 ) ;
#210 = ORIENTED_EDGE ( 'NONE', *, *, #47, .T. ) ;
#211 = APPROVAL_STATUS ( 'not_yet_approved' ) ;
#212 = DIRECTION ( 'NONE',  ( 1.000000000000000000, 0.000000000000000000, 0.000000000000000000 ) ) ;
#213 = ORIENTED_EDGE ( 'NONE', *, *, #134, .F. ) ;
#214 = COORDINATED_UNIVERSAL_TIME_OFFSET ( 1, 0, .AHEAD. ) ;
#215 = ORIENTED_EDGE ( 'NONE', *, *, #199, .F. ) ;
#216 = CYLINDRICAL_SURFACE ( 'NONE', #109, 3.100000000000000089 ) ;
#217 = EDGE_CURVE ( 'NONE', #103, #135, #121, .T. ) ;
#218 = EDGE_LOOP ( 'NONE', ( #215, #4, #240, #241 ) ) ;
#219 = CC_DESIGN_SECURITY_CLASSIFICATION ( #11, ( #123 ) ) ;
#220 = VERTEX_POINT ( 'NONE', #41 ) ;
#221 = CARTESIAN_POINT ( 'NONE',  ( 6.000000000000000888, 7.347880794884120722E-16, 0.000000000000000000 ) ) ;
#222 = AXIS2_PLACEMENT_3D ( 'NONE', #114, #229, #190 ) ;
#223 = DIRECTION ( 'NONE',  ( 1.000000000000000000, 0.000000000000000000, 0.000000000000000000 ) ) ;
#224 = CARTESIAN_POINT ( 'NONE',  ( 6.000000000000000888, 7.347880794884120722E-16, 5.000000000000000000 ) ) ;
#225 = PERSON_AND_ORGANIZATION_ROLE ( 'creator' ) ;
#226 = CIRCLE ( 'NONE', #115, 3.100000000000000089 ) ;
#227 = DATE_AND_TIME ( #170, #175 ) ;
#228 = PRODUCT_RELATED_PRODUCT_CATEGORY ( 'detail', '', ( #73 ) ) ;
#229 = DIRECTION ( 'NONE',  ( 0.000000000000000000, 0.000000000000000000, 1.000000000000000000 ) ) ;
#230 = CALENDAR_DATE ( 2023, 13, 2 ) ;
#231 = CC_DESIGN_PERSON_AND_ORGANIZATION_ASSIGNMENT ( #72, #225, ( #209 ) ) ;
#232 = VERTEX_POINT ( 'NONE', #56 ) ;
#233 = DIRECTION ( 'NONE',  ( -0.000000000000000000, -0.000000000000000000, -1.000000000000000000 ) ) ;
#234 = CIRCLE ( 'NONE', #200, 6.000000000000000888 ) ;
#235 = AXIS2_PLACEMENT_3D ( 'NONE', #78, #191, #159 ) ;
#236 = DIRECTION ( 'NONE',  ( 1.000000000000000000, 0.000000000000000000, 0.000000000000000000 ) ) ;
#237 = PLANE ( 'NONE',  #161 ) ;
#238 = MANIFOLD_SOLID_BREP ( 'Pøidat vysunutím3', #250 ) ;
#239 = ADVANCED_FACE ( 'NONE', ( #128 ), #253, .T. ) ;
#240 = ORIENTED_EDGE ( 'NONE', *, *, #146, .T. ) ;
#241 = ORIENTED_EDGE ( 'NONE', *, *, #19, .F. ) ;
#242 = VECTOR ( 'NONE', #117, 1000.000000000000000 ) ;
#243 = CC_DESIGN_PERSON_AND_ORGANIZATION_ASSIGNMENT ( #151, #51, ( #123 ) ) ;
#244 = DIRECTION ( 'NONE',  ( 0.000000000000000000, 0.000000000000000000, 1.000000000000000000 ) ) ;
#245 = FACE_OUTER_BOUND ( 'NONE', #248, .T. ) ;
#246 = CIRCLE ( 'NONE', #130, 6.000000000000000888 ) ;
#247 = CC_DESIGN_APPROVAL ( #80, ( #209 ) ) ;
#248 = EDGE_LOOP ( 'NONE', ( #63, #186, #66, #213 ) ) ;
#249 = MECHANICAL_CONTEXT ( 'NONE', #145, 'mechanical' ) ;
#250 = CLOSED_SHELL ( 'NONE', ( #239, #108, #46, #254, #29, #96, #89 ) ) ;
#251 = PERSON_AND_ORGANIZATION_ROLE ( 'classification_officer' ) ;
#252 = PLANE ( 'NONE',  #140 ) ;
#253 = CYLINDRICAL_SURFACE ( 'NONE', #45, 3.100000000000000089 ) ;
#254 = ADVANCED_FACE ( 'NONE', ( #102, #2 ), #237, .T. ) ;
#255 = CARTESIAN_POINT ( 'NONE',  ( 0.000000000000000000, 0.000000000000000000, 500.0000000000000000 ) ) ;
ENDSEC;
END-ISO-10303-21;
