ISO-10303-21;
HEADER;
FILE_DESCRIPTION (( 'STEP AP203' ),
    '1' );
FILE_NAME ('d495.STEP',
    '2023-02-13T09:44:03',
    ( '' ),
    ( '' ),
    'SwSTEP 2.0',
    'SolidWorks 2019',
    '' );
FILE_SCHEMA (( 'CONFIG_CONTROL_DESIGN' ));
ENDSEC;

DATA;
#1 = EDGE_CURVE ( 'NONE', #49, #105, #168, .T. ) ;
#2 = LOCAL_TIME ( 10, 44, 3.000000000000000000, #198 ) ;
#3 = COORDINATED_UNIVERSAL_TIME_OFFSET ( 1, 0, .AHEAD. ) ;
#4 = CALENDAR_DATE ( 2023, 13, 2 ) ;
#5 = VERTEX_POINT ( 'NONE', #194 ) ;
#6 = FACE_OUTER_BOUND ( 'NONE', #12, .T. ) ;
#7 = LOCAL_TIME ( 10, 44, 3.000000000000000000, #247 ) ;
#8 = ORIENTED_EDGE ( 'NONE', *, *, #104, .F. ) ;
#9 = PLANE ( 'NONE',  #184 ) ;
#10 = CARTESIAN_POINT ( 'NONE',  ( 0.000000000000000000, 0.000000000000000000, 0.000000000000000000 ) ) ;
#11 = CARTESIAN_POINT ( 'NONE',  ( 12.00000000000000178, 1.469576158976824144E-15, 7.000000000000000000 ) ) ;
#12 = EDGE_LOOP ( 'NONE', ( #124, #226, #32, #93 ) ) ;
#13 = DIRECTION ( 'NONE',  ( 0.000000000000000000, 0.000000000000000000, 1.000000000000000000 ) ) ;
#14 = PERSON_AND_ORGANIZATION ( #23, #173 ) ;
#15 = DATE_AND_TIME ( #196, #41 ) ;
#16 = AXIS2_PLACEMENT_3D ( 'NONE', #129, #243, #246 ) ;
#17 = DIRECTION ( 'NONE',  ( 0.000000000000000000, 0.000000000000000000, 1.000000000000000000 ) ) ;
#18 = MECHANICAL_CONTEXT ( 'NONE', #220, 'mechanical' ) ;
#19 = PRODUCT_DEFINITION_SHAPE ( 'NONE', 'NONE',  #37 ) ;
#20 = EDGE_CURVE ( 'NONE', #75, #49, #72, .T. ) ;
#21 = APPROVAL_PERSON_ORGANIZATION ( #14, #53, #171 ) ;
#22 = SECURITY_CLASSIFICATION_LEVEL ( 'unclassified' ) ;
#23 = PERSON ( 'NEURÈENÝ', 'NEURÈENÝ', 'NEURÈENÝ', ('NEURÈENÝ'), ('NEURÈENÝ'), ('NEURÈENÝ') ) ;
#24 = DIRECTION ( 'NONE',  ( 1.000000000000000000, 0.000000000000000000, 0.000000000000000000 ) ) ;
#25 = EDGE_LOOP ( 'NONE', ( #175, #241 ) ) ;
#26 = CC_DESIGN_PERSON_AND_ORGANIZATION_ASSIGNMENT ( #255, #240, ( #55 ) ) ;
#27 = DIRECTION ( 'NONE',  ( -0.000000000000000000, -0.000000000000000000, -1.000000000000000000 ) ) ;
#28 = DIRECTION ( 'NONE',  ( 1.000000000000000000, 0.000000000000000000, 0.000000000000000000 ) ) ;
#29 = AXIS2_PLACEMENT_3D ( 'NONE', #165, #244, #231 ) ;
#30 = DIRECTION ( 'NONE',  ( 0.000000000000000000, 0.000000000000000000, 1.000000000000000000 ) ) ;
#31 = COORDINATED_UNIVERSAL_TIME_OFFSET ( 1, 0, .AHEAD. ) ;
#32 = ORIENTED_EDGE ( 'NONE', *, *, #82, .T. ) ;
#33 = CARTESIAN_POINT ( 'NONE',  ( 8.000000000000000000, 9.797174393178825657E-16, 250.0000000000000000 ) ) ;
#34 = PLANE ( 'NONE',  #193 ) ;
#35 = PERSON_AND_ORGANIZATION ( #23, #173 ) ;
#36 = COORDINATED_UNIVERSAL_TIME_OFFSET ( 1, 0, .AHEAD. ) ;
#37 = PRODUCT_DEFINITION ( 'NEZNÁMÝ', '', #55, #108 ) ;
#38 = AXIS2_PLACEMENT_3D ( 'NONE', #183, #13, #24 ) ;
#39 = APPROVAL_STATUS ( 'not_yet_approved' ) ;
#40 = CARTESIAN_POINT ( 'NONE',  ( -8.000000000000000000, 0.000000000000000000, 7.000000000000000000 ) ) ;
#41 = LOCAL_TIME ( 10, 44, 3.000000000000000000, #31 ) ;
#42 = CARTESIAN_POINT ( 'NONE',  ( 8.000000000000000000, 9.797174393178825657E-16, 7.000000000000000000 ) ) ;
#43 = DIRECTION ( 'NONE',  ( 1.000000000000000000, 0.000000000000000000, 0.000000000000000000 ) ) ;
#44 = DIRECTION ( 'NONE',  ( 0.000000000000000000, 0.000000000000000000, 1.000000000000000000 ) ) ;
#45 = ORIENTED_EDGE ( 'NONE', *, *, #1, .T. ) ;
#46 = APPLICATION_PROTOCOL_DEFINITION ( 'international standard', 'config_control_design', 1994, #220 ) ;
#47 = AXIS2_PLACEMENT_3D ( 'NONE', #248, #17, #197 ) ;
#48 = CC_DESIGN_DATE_AND_TIME_ASSIGNMENT ( #15, #94, ( #37 ) ) ;
#49 = VERTEX_POINT ( 'NONE', #11 ) ;
#50 = PERSON_AND_ORGANIZATION ( #23, #173 ) ;
#51 = PLANE ( 'NONE',  #47 ) ;
#52 = VERTEX_POINT ( 'NONE', #144 ) ;
#53 = APPROVAL ( #92, 'NEURÈENÝ' ) ;
#54 =( LENGTH_UNIT ( ) NAMED_UNIT ( * ) SI_UNIT ( .MILLI., .METRE. ) );
#55 = PRODUCT_DEFINITION_FORMATION_WITH_SPECIFIED_SOURCE ( 'LIBOVOLNÝ', '', #180, .NOT_KNOWN. ) ;
#56 =( NAMED_UNIT ( * ) SI_UNIT ( $, .STERADIAN. ) SOLID_ANGLE_UNIT ( ) );
#57 = DATE_AND_TIME ( #100, #2 ) ;
#58 = CIRCLE ( 'NONE', #16, 8.000000000000000000 ) ;
#59 = PERSON_AND_ORGANIZATION_ROLE ( 'design_supplier' ) ;
#60 = PERSON_AND_ORGANIZATION_ROLE ( 'classification_officer' ) ;
#61 = ADVANCED_FACE ( 'NONE', ( #224 ), #9, .F. ) ;
#62 = VECTOR ( 'NONE', #101, 1000.000000000000000 ) ;
#63 = ORIENTED_EDGE ( 'NONE', *, *, #126, .F. ) ;
#64 = EDGE_CURVE ( 'NONE', #49, #75, #181, .T. ) ;
#65 = DIRECTION ( 'NONE',  ( -0.000000000000000000, -0.000000000000000000, -1.000000000000000000 ) ) ;
#66 = CIRCLE ( 'NONE', #203, 12.00000000000000178 ) ;
#67 = CARTESIAN_POINT ( 'NONE',  ( 0.000000000000000000, 0.000000000000000000, 7.000000000000000000 ) ) ;
#68 = DIRECTION ( 'NONE',  ( -0.000000000000000000, -0.000000000000000000, -1.000000000000000000 ) ) ;
#69 = APPLICATION_CONTEXT ( 'configuration controlled 3d designs of mechanical parts and assemblies' ) ;
#70 = APPROVAL ( #182, 'NEURÈENÝ' ) ;
#71 = ORIENTED_EDGE ( 'NONE', *, *, #126, .T. ) ;
#72 = CIRCLE ( 'NONE', #143, 12.00000000000000178 ) ;
#73 = DIRECTION ( 'NONE',  ( -1.000000000000000000, 0.000000000000000000, 0.000000000000000000 ) ) ;
#74 = CC_DESIGN_SECURITY_CLASSIFICATION ( #122, ( #55 ) ) ;
#75 = VERTEX_POINT ( 'NONE', #90 ) ;
#76 = CARTESIAN_POINT ( 'NONE',  ( 0.000000000000000000, 0.000000000000000000, 250.0000000000000000 ) ) ;
#77 = ORIENTED_EDGE ( 'NONE', *, *, #218, .F. ) ;
#78 = ADVANCED_FACE ( 'NONE', ( #6 ), #221, .T. ) ;
#79 = AXIS2_PLACEMENT_3D ( 'NONE', #116, #235, #73 ) ;
#80 = APPROVAL_ROLE ( '' ) ;
#81 = VECTOR ( 'NONE', #125, 1000.000000000000000 ) ;
#82 = EDGE_CURVE ( 'NONE', #52, #109, #89, .T. ) ;
#83 = CALENDAR_DATE ( 2023, 13, 2 ) ;
#84 = EDGE_LOOP ( 'NONE', ( #204, #45, #86, #77 ) ) ;
#85 = ORIENTED_EDGE ( 'NONE', *, *, #218, .T. ) ;
#86 = ORIENTED_EDGE ( 'NONE', *, *, #95, .T. ) ;
#87 = CARTESIAN_POINT ( 'NONE',  ( 0.000000000000000000, 0.000000000000000000, 250.0000000000000000 ) ) ;
#88 = ORIENTED_EDGE ( 'NONE', *, *, #104, .T. ) ;
#89 = LINE ( 'NONE', #140, #237 ) ;
#90 = CARTESIAN_POINT ( 'NONE',  ( -12.00000000000000178, 0.000000000000000000, 7.000000000000000000 ) ) ;
#91 = EDGE_LOOP ( 'NONE', ( #63, #113, #141, #228 ) ) ;
#92 = APPROVAL_STATUS ( 'not_yet_approved' ) ;
#93 = ORIENTED_EDGE ( 'NONE', *, *, #99, .T. ) ;
#94 = DATE_TIME_ROLE ( 'creation_date' ) ;
#95 = EDGE_CURVE ( 'NONE', #105, #5, #216, .T. ) ;
#96 = EDGE_LOOP ( 'NONE', ( #185, #232 ) ) ;
#97 = CARTESIAN_POINT ( 'NONE',  ( 0.000000000000000000, 0.000000000000000000, 7.000000000000000000 ) ) ;
#98 = LINE ( 'NONE', #174, #131 ) ;
#99 = EDGE_CURVE ( 'NONE', #109, #134, #58, .T. ) ;
#100 = CALENDAR_DATE ( 2023, 13, 2 ) ;
#101 = DIRECTION ( 'NONE',  ( -0.000000000000000000, -0.000000000000000000, -1.000000000000000000 ) ) ;
#102 = UNCERTAINTY_MEASURE_WITH_UNIT (LENGTH_MEASURE( 1.000000000000000082E-05 ), #54, 'distance_accuracy_value', 'NONE');
#103 = ORIENTED_EDGE ( 'NONE', *, *, #170, .T. ) ;
#104 = EDGE_CURVE ( 'NONE', #5, #105, #66, .T. ) ;
#105 = VERTEX_POINT ( 'NONE', #142 ) ;
#106 = EDGE_LOOP ( 'NONE', ( #191, #210, #85, #88 ) ) ;
#107 = DIRECTION ( 'NONE',  ( -1.000000000000000000, 0.000000000000000000, 0.000000000000000000 ) ) ;
#108 = DESIGN_CONTEXT ( 'detailed design', #69, 'design' ) ;
#109 = VERTEX_POINT ( 'NONE', #40 ) ;
#110 = CARTESIAN_POINT ( 'NONE',  ( 0.000000000000000000, 0.000000000000000000, 250.0000000000000000 ) ) ;
#111 = APPROVAL ( #39, 'NEURÈENÝ' ) ;
#112 = FACE_OUTER_BOUND ( 'NONE', #25, .T. ) ;
#113 = ORIENTED_EDGE ( 'NONE', *, *, #132, .T. ) ;
#114 = CARTESIAN_POINT ( 'NONE',  ( 0.000000000000000000, 0.000000000000000000, 0.000000000000000000 ) ) ;
#115 = APPROVAL_PERSON_ORGANIZATION ( #215, #111, #200 ) ;
#116 = CARTESIAN_POINT ( 'NONE',  ( 0.000000000000000000, 0.000000000000000000, 7.000000000000000000 ) ) ;
#117 = DIRECTION ( 'NONE',  ( 1.000000000000000000, 0.000000000000000000, -0.000000000000000000 ) ) ;
#118 = CC_DESIGN_DATE_AND_TIME_ASSIGNMENT ( #123, #236, ( #122 ) ) ;
#119 = CC_DESIGN_PERSON_AND_ORGANIZATION_ASSIGNMENT ( #155, #60, ( #122 ) ) ;
#120 = DATE_AND_TIME ( #4, #223 ) ;
#121 = AXIS2_PLACEMENT_3D ( 'NONE', #87, #68, #145 ) ;
#122 = SECURITY_CLASSIFICATION ( '', '', #22 ) ;
#123 = DATE_AND_TIME ( #83, #253 ) ;
#124 = ORIENTED_EDGE ( 'NONE', *, *, #132, .F. ) ;
#125 = DIRECTION ( 'NONE',  ( -0.000000000000000000, -0.000000000000000000, -1.000000000000000000 ) ) ;
#126 = EDGE_CURVE ( 'NONE', #206, #52, #157, .T. ) ;
#127 = CARTESIAN_POINT ( 'NONE',  ( 0.000000000000000000, 0.000000000000000000, 250.0000000000000000 ) ) ;
#128 = CYLINDRICAL_SURFACE ( 'NONE', #166, 12.00000000000000178 ) ;
#129 = CARTESIAN_POINT ( 'NONE',  ( 0.000000000000000000, 0.000000000000000000, 7.000000000000000000 ) ) ;
#130 = DIRECTION ( 'NONE',  ( 1.000000000000000000, 0.000000000000000000, 0.000000000000000000 ) ) ;
#131 = VECTOR ( 'NONE', #212, 1000.000000000000000 ) ;
#132 = EDGE_CURVE ( 'NONE', #206, #134, #222, .T. ) ;
#133 = PERSON_AND_ORGANIZATION_ROLE ( 'creator' ) ;
#134 = VERTEX_POINT ( 'NONE', #42 ) ;
#135 = DIRECTION ( 'NONE',  ( 0.000000000000000000, 0.000000000000000000, 1.000000000000000000 ) ) ;
#136 = DIRECTION ( 'NONE',  ( 1.000000000000000000, 0.000000000000000000, 0.000000000000000000 ) ) ;
#137 = APPROVAL_DATE_TIME ( #57, #111 ) ;
#138 = AXIS2_PLACEMENT_3D ( 'NONE', #110, #44, #202 ) ;
#139 = CC_DESIGN_APPROVAL ( #111, ( #122 ) ) ;
#140 = CARTESIAN_POINT ( 'NONE',  ( -8.000000000000000000, 0.000000000000000000, 250.0000000000000000 ) ) ;
#141 = ORIENTED_EDGE ( 'NONE', *, *, #213, .T. ) ;
#142 = CARTESIAN_POINT ( 'NONE',  ( 12.00000000000000178, 1.469576158976824144E-15, 0.000000000000000000 ) ) ;
#143 = AXIS2_PLACEMENT_3D ( 'NONE', #67, #192, #130 ) ;
#144 = CARTESIAN_POINT ( 'NONE',  ( -8.000000000000000000, 0.000000000000000000, 250.0000000000000000 ) ) ;
#145 = DIRECTION ( 'NONE',  ( -1.000000000000000000, 0.000000000000000000, 0.000000000000000000 ) ) ;
#146 = DIRECTION ( 'NONE',  ( -0.000000000000000000, -0.000000000000000000, -1.000000000000000000 ) ) ;
#147 =( GEOMETRIC_REPRESENTATION_CONTEXT ( 3 ) GLOBAL_UNCERTAINTY_ASSIGNED_CONTEXT ( ( #102 ) ) GLOBAL_UNIT_ASSIGNED_CONTEXT ( ( #54, #250, #56 ) ) REPRESENTATION_CONTEXT ( 'NONE', 'WORKASPACE' ) );
#148 = CALENDAR_DATE ( 2023, 13, 2 ) ;
#149 = CC_DESIGN_PERSON_AND_ORGANIZATION_ASSIGNMENT ( #35, #254, ( #180 ) ) ;
#150 = DATE_AND_TIME ( #148, #7 ) ;
#151 = ORIENTED_EDGE ( 'NONE', *, *, #95, .F. ) ;
#152 = FACE_OUTER_BOUND ( 'NONE', #84, .T. ) ;
#153 = ADVANCED_FACE ( 'NONE', ( #201 ), #128, .T. ) ;
#154 = CIRCLE ( 'NONE', #29, 8.000000000000000000 ) ;
#155 = PERSON_AND_ORGANIZATION ( #23, #173 ) ;
#156 = ADVANCED_FACE ( 'NONE', ( #245 ), #190, .T. ) ;
#157 = CIRCLE ( 'NONE', #138, 8.000000000000000000 ) ;
#158 = APPROVAL_DATE_TIME ( #120, #70 ) ;
#159 = PRODUCT_RELATED_PRODUCT_CATEGORY ( 'detail', '', ( #180 ) ) ;
#160 = ADVANCED_BREP_SHAPE_REPRESENTATION ( 'd495', ( #208, #167 ), #147 ) ;
#161 = CLOSED_SHELL ( 'NONE', ( #156, #176, #153, #230, #61, #78, #187 ) ) ;
#162 = DIRECTION ( 'NONE',  ( -1.000000000000000000, 0.000000000000000000, 0.000000000000000000 ) ) ;
#163 = DIRECTION ( 'NONE',  ( 0.000000000000000000, 0.000000000000000000, 1.000000000000000000 ) ) ;
#164 = CC_DESIGN_PERSON_AND_ORGANIZATION_ASSIGNMENT ( #50, #133, ( #37 ) ) ;
#165 = CARTESIAN_POINT ( 'NONE',  ( 0.000000000000000000, 0.000000000000000000, 250.0000000000000000 ) ) ;
#166 = AXIS2_PLACEMENT_3D ( 'NONE', #205, #27, #107 ) ;
#167 = AXIS2_PLACEMENT_3D ( 'NONE', #114, #251, #178 ) ;
#168 = LINE ( 'NONE', #188, #62 ) ;
#169 = DIRECTION ( 'NONE',  ( 0.000000000000000000, 0.000000000000000000, 1.000000000000000000 ) ) ;
#170 = EDGE_CURVE ( 'NONE', #52, #206, #154, .T. ) ;
#171 = APPROVAL_ROLE ( '' ) ;
#172 = AXIS2_PLACEMENT_3D ( 'NONE', #127, #146, #162 ) ;
#173 = ORGANIZATION ( 'NEURÈENÝ', 'NEURÈENÝ', '' ) ;
#174 = CARTESIAN_POINT ( 'NONE',  ( -12.00000000000000178, 0.000000000000000000, 7.000000000000000000 ) ) ;
#175 = ORIENTED_EDGE ( 'NONE', *, *, #20, .T. ) ;
#176 = ADVANCED_FACE ( 'NONE', ( #152 ), #214, .T. ) ;
#177 = AXIS2_PLACEMENT_3D ( 'NONE', #97, #135, #136 ) ;
#178 = DIRECTION ( 'NONE',  ( 1.000000000000000000, 0.000000000000000000, 0.000000000000000000 ) ) ;
#179 = PERSON_AND_ORGANIZATION ( #23, #173 ) ;
#180 = PRODUCT ( 'd495', 'd495', '', ( #18 ) ) ;
#181 = CIRCLE ( 'NONE', #38, 12.00000000000000178 ) ;
#182 = APPROVAL_STATUS ( 'not_yet_approved' ) ;
#183 = CARTESIAN_POINT ( 'NONE',  ( 0.000000000000000000, 0.000000000000000000, 7.000000000000000000 ) ) ;
#184 = AXIS2_PLACEMENT_3D ( 'NONE', #10, #163, #225 ) ;
#185 = ORIENTED_EDGE ( 'NONE', *, *, #99, .F. ) ;
#186 = CC_DESIGN_APPROVAL ( #53, ( #37 ) ) ;
#187 = ADVANCED_FACE ( 'NONE', ( #233 ), #34, .T. ) ;
#188 = CARTESIAN_POINT ( 'NONE',  ( 12.00000000000000178, 1.469576158976824144E-15, 7.000000000000000000 ) ) ;
#189 = EDGE_LOOP ( 'NONE', ( #8, #151 ) ) ;
#190 = CYLINDRICAL_SURFACE ( 'NONE', #121, 8.000000000000000000 ) ;
#191 = ORIENTED_EDGE ( 'NONE', *, *, #1, .F. ) ;
#192 = DIRECTION ( 'NONE',  ( 0.000000000000000000, 0.000000000000000000, 1.000000000000000000 ) ) ;
#193 = AXIS2_PLACEMENT_3D ( 'NONE', #76, #30, #117 ) ;
#194 = CARTESIAN_POINT ( 'NONE',  ( -12.00000000000000178, 0.000000000000000000, 0.000000000000000000 ) ) ;
#195 = APPLICATION_PROTOCOL_DEFINITION ( 'international standard', 'config_control_design', 1994, #69 ) ;
#196 = CALENDAR_DATE ( 2023, 13, 2 ) ;
#197 = DIRECTION ( 'NONE',  ( 1.000000000000000000, 0.000000000000000000, -0.000000000000000000 ) ) ;
#198 = COORDINATED_UNIVERSAL_TIME_OFFSET ( 1, 0, .AHEAD. ) ;
#199 = CC_DESIGN_PERSON_AND_ORGANIZATION_ASSIGNMENT ( #217, #59, ( #55 ) ) ;
#200 = APPROVAL_ROLE ( '' ) ;
#201 = FACE_OUTER_BOUND ( 'NONE', #106, .T. ) ;
#202 = DIRECTION ( 'NONE',  ( 1.000000000000000000, 0.000000000000000000, 0.000000000000000000 ) ) ;
#203 = AXIS2_PLACEMENT_3D ( 'NONE', #207, #209, #28 ) ;
#204 = ORIENTED_EDGE ( 'NONE', *, *, #64, .F. ) ;
#205 = CARTESIAN_POINT ( 'NONE',  ( 0.000000000000000000, 0.000000000000000000, 7.000000000000000000 ) ) ;
#206 = VERTEX_POINT ( 'NONE', #33 ) ;
#207 = CARTESIAN_POINT ( 'NONE',  ( 0.000000000000000000, 0.000000000000000000, 0.000000000000000000 ) ) ;
#208 = MANIFOLD_SOLID_BREP ( 'Pøidat vysunutím3', #161 ) ;
#209 = DIRECTION ( 'NONE',  ( 0.000000000000000000, 0.000000000000000000, 1.000000000000000000 ) ) ;
#210 = ORIENTED_EDGE ( 'NONE', *, *, #20, .F. ) ;
#211 = FACE_BOUND ( 'NONE', #96, .T. ) ;
#212 = DIRECTION ( 'NONE',  ( -0.000000000000000000, -0.000000000000000000, -1.000000000000000000 ) ) ;
#213 = EDGE_CURVE ( 'NONE', #134, #109, #219, .T. ) ;
#214 = CYLINDRICAL_SURFACE ( 'NONE', #79, 12.00000000000000178 ) ;
#215 = PERSON_AND_ORGANIZATION ( #23, #173 ) ;
#216 = CIRCLE ( 'NONE', #252, 12.00000000000000178 ) ;
#217 = PERSON_AND_ORGANIZATION ( #23, #173 ) ;
#218 = EDGE_CURVE ( 'NONE', #75, #5, #98, .T. ) ;
#219 = CIRCLE ( 'NONE', #177, 8.000000000000000000 ) ;
#220 = APPLICATION_CONTEXT ( 'configuration controlled 3d designs of mechanical parts and assemblies' ) ;
#221 = CYLINDRICAL_SURFACE ( 'NONE', #172, 8.000000000000000000 ) ;
#222 = LINE ( 'NONE', #227, #81 ) ;
#223 = LOCAL_TIME ( 10, 44, 3.000000000000000000, #36 ) ;
#224 = FACE_OUTER_BOUND ( 'NONE', #189, .T. ) ;
#225 = DIRECTION ( 'NONE',  ( 1.000000000000000000, 0.000000000000000000, -0.000000000000000000 ) ) ;
#226 = ORIENTED_EDGE ( 'NONE', *, *, #170, .F. ) ;
#227 = CARTESIAN_POINT ( 'NONE',  ( 8.000000000000000000, 9.797174393178825657E-16, 250.0000000000000000 ) ) ;
#228 = ORIENTED_EDGE ( 'NONE', *, *, #82, .F. ) ;
#229 = APPROVAL_DATE_TIME ( #150, #53 ) ;
#230 = ADVANCED_FACE ( 'NONE', ( #211, #112 ), #51, .T. ) ;
#231 = DIRECTION ( 'NONE',  ( 1.000000000000000000, 0.000000000000000000, 0.000000000000000000 ) ) ;
#232 = ORIENTED_EDGE ( 'NONE', *, *, #213, .F. ) ;
#233 = FACE_OUTER_BOUND ( 'NONE', #249, .T. ) ;
#234 = APPROVAL_PERSON_ORGANIZATION ( #179, #70, #80 ) ;
#235 = DIRECTION ( 'NONE',  ( -0.000000000000000000, -0.000000000000000000, -1.000000000000000000 ) ) ;
#236 = DATE_TIME_ROLE ( 'classification_date' ) ;
#237 = VECTOR ( 'NONE', #65, 1000.000000000000000 ) ;
#238 = CC_DESIGN_APPROVAL ( #70, ( #55 ) ) ;
#239 = SHAPE_DEFINITION_REPRESENTATION ( #19, #160 ) ;
#240 = PERSON_AND_ORGANIZATION_ROLE ( 'creator' ) ;
#241 = ORIENTED_EDGE ( 'NONE', *, *, #64, .T. ) ;
#242 = CARTESIAN_POINT ( 'NONE',  ( 0.000000000000000000, 0.000000000000000000, 0.000000000000000000 ) ) ;
#243 = DIRECTION ( 'NONE',  ( 0.000000000000000000, 0.000000000000000000, 1.000000000000000000 ) ) ;
#244 = DIRECTION ( 'NONE',  ( 0.000000000000000000, 0.000000000000000000, 1.000000000000000000 ) ) ;
#245 = FACE_OUTER_BOUND ( 'NONE', #91, .T. ) ;
#246 = DIRECTION ( 'NONE',  ( 1.000000000000000000, 0.000000000000000000, 0.000000000000000000 ) ) ;
#247 = COORDINATED_UNIVERSAL_TIME_OFFSET ( 1, 0, .AHEAD. ) ;
#248 = CARTESIAN_POINT ( 'NONE',  ( 0.000000000000000000, 0.000000000000000000, 7.000000000000000000 ) ) ;
#249 = EDGE_LOOP ( 'NONE', ( #103, #71 ) ) ;
#250 =( NAMED_UNIT ( * ) PLANE_ANGLE_UNIT ( ) SI_UNIT ( $, .RADIAN. ) );
#251 = DIRECTION ( 'NONE',  ( 0.000000000000000000, 0.000000000000000000, 1.000000000000000000 ) ) ;
#252 = AXIS2_PLACEMENT_3D ( 'NONE', #242, #169, #43 ) ;
#253 = LOCAL_TIME ( 10, 44, 3.000000000000000000, #3 ) ;
#254 = PERSON_AND_ORGANIZATION_ROLE ( 'design_owner' ) ;
#255 = PERSON_AND_ORGANIZATION ( #23, #173 ) ;
ENDSEC;
END-ISO-10303-21;
