ISO-10303-21;
HEADER;
FILE_DESCRIPTION (( 'STEP AP203' ),
    '1' );
FILE_NAME ('aed7.STEP',
    '2023-02-13T08:40:45',
    ( '' ),
    ( '' ),
    'SwSTEP 2.0',
    'SolidWorks 2019',
    '' );
FILE_SCHEMA (( 'CONFIG_CONTROL_DESIGN' ));
ENDSEC;

DATA;
#1 = DIRECTION ( 'NONE',  ( 0.000000000000000000, 0.000000000000000000, 1.000000000000000000 ) ) ;
#2 = APPROVAL ( #96, 'NEURÈENÝ' ) ;
#3 = CARTESIAN_POINT ( 'NONE',  ( 0.000000000000000000, 0.000000000000000000, 7.000000000000000000 ) ) ;
#4 = COORDINATED_UNIVERSAL_TIME_OFFSET ( 1, 0, .AHEAD. ) ;
#5 = PLANE ( 'NONE',  #123 ) ;
#6 = CARTESIAN_POINT ( 'NONE',  ( 0.000000000000000000, 0.000000000000000000, 0.000000000000000000 ) ) ;
#7 = CARTESIAN_POINT ( 'NONE',  ( 0.000000000000000000, 0.000000000000000000, 400.0000000000000000 ) ) ;
#8 = CC_DESIGN_APPROVAL ( #240, ( #15 ) ) ;
#9 = AXIS2_PLACEMENT_3D ( 'NONE', #48, #71, #98 ) ;
#10 = CC_DESIGN_DATE_AND_TIME_ASSIGNMENT ( #83, #251, ( #67 ) ) ;
#11 = MECHANICAL_CONTEXT ( 'NONE', #44, 'mechanical' ) ;
#12 = CARTESIAN_POINT ( 'NONE',  ( -14.00000000000000000, 0.000000000000000000, 7.000000000000000000 ) ) ;
#13 = EDGE_LOOP ( 'NONE', ( #95, #111, #133, #179 ) ) ;
#14 = ORIENTED_EDGE ( 'NONE', *, *, #199, .F. ) ;
#15 = PRODUCT_DEFINITION_FORMATION_WITH_SPECIFIED_SOURCE ( 'LIBOVOLNÝ', '', #124, .NOT_KNOWN. ) ;
#16 = CARTESIAN_POINT ( 'NONE',  ( -14.00000000000000000, 0.000000000000000000, 7.000000000000000000 ) ) ;
#17 = DIRECTION ( 'NONE',  ( 1.000000000000000000, 0.000000000000000000, 0.000000000000000000 ) ) ;
#18 = PERSON_AND_ORGANIZATION ( #131, #87 ) ;
#19 = DATE_AND_TIME ( #59, #72 ) ;
#20 = APPROVAL_ROLE ( '' ) ;
#21 = CIRCLE ( 'NONE', #238, 14.00000000000000000 ) ;
#22 = CC_DESIGN_PERSON_AND_ORGANIZATION_ASSIGNMENT ( #227, #40, ( #63 ) ) ;
#23 = CARTESIAN_POINT ( 'NONE',  ( 0.000000000000000000, 0.000000000000000000, 7.000000000000000000 ) ) ;
#24 = DIRECTION ( 'NONE',  ( -0.000000000000000000, -0.000000000000000000, -1.000000000000000000 ) ) ;
#25 = FACE_OUTER_BOUND ( 'NONE', #252, .T. ) ;
#26 = DIRECTION ( 'NONE',  ( 1.000000000000000000, 0.000000000000000000, 0.000000000000000000 ) ) ;
#27 = ORIENTED_EDGE ( 'NONE', *, *, #244, .F. ) ;
#28 = DIRECTION ( 'NONE',  ( 0.000000000000000000, 0.000000000000000000, 1.000000000000000000 ) ) ;
#29 = APPLICATION_PROTOCOL_DEFINITION ( 'international standard', 'config_control_design', 1994, #44 ) ;
#30 = VERTEX_POINT ( 'NONE', #249 ) ;
#31 = LOCAL_TIME ( 9, 40, 45.00000000000000000, #4 ) ;
#32 =( NAMED_UNIT ( * ) PLANE_ANGLE_UNIT ( ) SI_UNIT ( $, .RADIAN. ) );
#33 = ADVANCED_FACE ( 'NONE', ( #205 ), #150, .T. ) ;
#34 = DIRECTION ( 'NONE',  ( 1.000000000000000000, 0.000000000000000000, -0.000000000000000000 ) ) ;
#35 = CARTESIAN_POINT ( 'NONE',  ( -10.00000000000000000, 0.000000000000000000, 7.000000000000000000 ) ) ;
#36 = FACE_OUTER_BOUND ( 'NONE', #13, .T. ) ;
#37 = PERSON_AND_ORGANIZATION_ROLE ( 'design_supplier' ) ;
#38 = CIRCLE ( 'NONE', #127, 14.00000000000000000 ) ;
#39 = CARTESIAN_POINT ( 'NONE',  ( 14.00000000000000000, 1.714505518806294638E-15, 7.000000000000000000 ) ) ;
#40 = PERSON_AND_ORGANIZATION_ROLE ( 'classification_officer' ) ;
#41 = EDGE_CURVE ( 'NONE', #190, #216, #21, .T. ) ;
#42 = DIRECTION ( 'NONE',  ( 0.000000000000000000, 0.000000000000000000, 1.000000000000000000 ) ) ;
#43 = PERSON_AND_ORGANIZATION ( #131, #87 ) ;
#44 = APPLICATION_CONTEXT ( 'configuration controlled 3d designs of mechanical parts and assemblies' ) ;
#45 = VERTEX_POINT ( 'NONE', #50 ) ;
#46 = ADVANCED_FACE ( 'NONE', ( #129 ), #165, .T. ) ;
#47 = EDGE_LOOP ( 'NONE', ( #130, #92 ) ) ;
#48 = CARTESIAN_POINT ( 'NONE',  ( 0.000000000000000000, 0.000000000000000000, 400.0000000000000000 ) ) ;
#49 = DIRECTION ( 'NONE',  ( 1.000000000000000000, 0.000000000000000000, 0.000000000000000000 ) ) ;
#50 = CARTESIAN_POINT ( 'NONE',  ( -10.00000000000000000, 0.000000000000000000, 400.0000000000000000 ) ) ;
#51 = ORIENTED_EDGE ( 'NONE', *, *, #182, .F. ) ;
#52 = FACE_BOUND ( 'NONE', #134, .T. ) ;
#53 = EDGE_LOOP ( 'NONE', ( #175, #56 ) ) ;
#54 = VECTOR ( 'NONE', #239, 1000.000000000000000 ) ;
#55 = CC_DESIGN_APPROVAL ( #2, ( #67 ) ) ;
#56 = ORIENTED_EDGE ( 'NONE', *, *, #212, .T. ) ;
#57 = FACE_OUTER_BOUND ( 'NONE', #53, .T. ) ;
#58 = DATE_AND_TIME ( #157, #31 ) ;
#59 = CALENDAR_DATE ( 2023, 13, 2 ) ;
#60 = DIRECTION ( 'NONE',  ( 0.000000000000000000, 0.000000000000000000, 1.000000000000000000 ) ) ;
#61 = ADVANCED_FACE ( 'NONE', ( #36 ), #148, .T. ) ;
#62 = CYLINDRICAL_SURFACE ( 'NONE', #118, 14.00000000000000000 ) ;
#63 = SECURITY_CLASSIFICATION ( '', '', #206 ) ;
#64 = VERTEX_POINT ( 'NONE', #35 ) ;
#65 = FACE_OUTER_BOUND ( 'NONE', #47, .T. ) ;
#66 = ORIENTED_EDGE ( 'NONE', *, *, #158, .F. ) ;
#67 = PRODUCT_DEFINITION ( 'NEZNÁMÝ', '', #15, #198 ) ;
#68 = CC_DESIGN_APPROVAL ( #214, ( #63 ) ) ;
#69 = CIRCLE ( 'NONE', #162, 10.00000000000000000 ) ;
#70 = LINE ( 'NONE', #255, #97 ) ;
#71 = DIRECTION ( 'NONE',  ( -0.000000000000000000, -0.000000000000000000, -1.000000000000000000 ) ) ;
#72 = LOCAL_TIME ( 9, 40, 45.00000000000000000, #76 ) ;
#73 = ORIENTED_EDGE ( 'NONE', *, *, #85, .T. ) ;
#74 = ORIENTED_EDGE ( 'NONE', *, *, #182, .T. ) ;
#75 = ORIENTED_EDGE ( 'NONE', *, *, #210, .F. ) ;
#76 = COORDINATED_UNIVERSAL_TIME_OFFSET ( 1, 0, .AHEAD. ) ;
#77 = CC_DESIGN_PERSON_AND_ORGANIZATION_ASSIGNMENT ( #223, #137, ( #15 ) ) ;
#78 = APPROVAL_STATUS ( 'not_yet_approved' ) ;
#79 = CARTESIAN_POINT ( 'NONE',  ( 0.000000000000000000, 0.000000000000000000, 400.0000000000000000 ) ) ;
#80 = APPROVAL_ROLE ( '' ) ;
#81 = DIRECTION ( 'NONE',  ( 0.000000000000000000, 0.000000000000000000, 1.000000000000000000 ) ) ;
#82 = APPROVAL_DATE_TIME ( #119, #214 ) ;
#83 = DATE_AND_TIME ( #152, #211 ) ;
#84 = DIRECTION ( 'NONE',  ( 0.000000000000000000, 0.000000000000000000, 1.000000000000000000 ) ) ;
#85 = EDGE_CURVE ( 'NONE', #190, #170, #189, .T. ) ;
#86 = CARTESIAN_POINT ( 'NONE',  ( 0.000000000000000000, 0.000000000000000000, 0.000000000000000000 ) ) ;
#87 = ORGANIZATION ( 'NEURÈENÝ', 'NEURÈENÝ', '' ) ;
#88 = CIRCLE ( 'NONE', #145, 14.00000000000000000 ) ;
#89 = EDGE_CURVE ( 'NONE', #151, #170, #88, .T. ) ;
#90 = AXIS2_PLACEMENT_3D ( 'NONE', #245, #149, #49 ) ;
#91 = LINE ( 'NONE', #164, #54 ) ;
#92 = ORIENTED_EDGE ( 'NONE', *, *, #244, .T. ) ;
#93 = SHAPE_DEFINITION_REPRESENTATION ( #233, #183 ) ;
#94 = DIRECTION ( 'NONE',  ( -0.000000000000000000, -0.000000000000000000, -1.000000000000000000 ) ) ;
#95 = ORIENTED_EDGE ( 'NONE', *, *, #212, .F. ) ;
#96 = APPROVAL_STATUS ( 'not_yet_approved' ) ;
#97 = VECTOR ( 'NONE', #24, 1000.000000000000000 ) ;
#98 = DIRECTION ( 'NONE',  ( -1.000000000000000000, 0.000000000000000000, 0.000000000000000000 ) ) ;
#99 = PLANE ( 'NONE',  #113 ) ;
#100 = PERSON_AND_ORGANIZATION ( #131, #87 ) ;
#101 = PERSON_AND_ORGANIZATION ( #131, #87 ) ;
#102 = ORIENTED_EDGE ( 'NONE', *, *, #199, .T. ) ;
#103 = ADVANCED_FACE ( 'NONE', ( #52, #57 ), #194, .T. ) ;
#104 = COORDINATED_UNIVERSAL_TIME_OFFSET ( 1, 0, .AHEAD. ) ;
#105 =( NAMED_UNIT ( * ) SI_UNIT ( $, .STERADIAN. ) SOLID_ANGLE_UNIT ( ) );
#106 = AXIS2_PLACEMENT_3D ( 'NONE', #208, #142, #26 ) ;
#107 = APPROVAL_PERSON_ORGANIZATION ( #222, #214, #20 ) ;
#108 = DIRECTION ( 'NONE',  ( 1.000000000000000000, 0.000000000000000000, 0.000000000000000000 ) ) ;
#109 = ORIENTED_EDGE ( 'NONE', *, *, #128, .T. ) ;
#110 = ADVANCED_FACE ( 'NONE', ( #65 ), #99, .T. ) ;
#111 = ORIENTED_EDGE ( 'NONE', *, *, #158, .T. ) ;
#112 = CARTESIAN_POINT ( 'NONE',  ( 14.00000000000000000, 1.714505518806294638E-15, 0.000000000000000000 ) ) ;
#113 = AXIS2_PLACEMENT_3D ( 'NONE', #79, #42, #120 ) ;
#114 = AXIS2_PLACEMENT_3D ( 'NONE', #3, #155, #228 ) ;
#115 = CC_DESIGN_DATE_AND_TIME_ASSIGNMENT ( #192, #247, ( #63 ) ) ;
#116 = ORIENTED_EDGE ( 'NONE', *, *, #41, .F. ) ;
#117 = APPROVAL_STATUS ( 'not_yet_approved' ) ;
#118 = AXIS2_PLACEMENT_3D ( 'NONE', #23, #181, #236 ) ;
#119 = DATE_AND_TIME ( #171, #167 ) ;
#120 = DIRECTION ( 'NONE',  ( 1.000000000000000000, 0.000000000000000000, -0.000000000000000000 ) ) ;
#121 = AXIS2_PLACEMENT_3D ( 'NONE', #7, #1, #224 ) ;
#122 = ADVANCED_FACE ( 'NONE', ( #25 ), #5, .F. ) ;
#123 = AXIS2_PLACEMENT_3D ( 'NONE', #6, #126, #34 ) ;
#124 = PRODUCT ( 'aed7', 'aed7', '', ( #11 ) ) ;
#125 = CIRCLE ( 'NONE', #121, 10.00000000000000000 ) ;
#126 = DIRECTION ( 'NONE',  ( 0.000000000000000000, 0.000000000000000000, 1.000000000000000000 ) ) ;
#127 = AXIS2_PLACEMENT_3D ( 'NONE', #139, #84, #230 ) ;
#128 = EDGE_CURVE ( 'NONE', #184, #64, #69, .T. ) ;
#129 = FACE_OUTER_BOUND ( 'NONE', #197, .T. ) ;
#130 = ORIENTED_EDGE ( 'NONE', *, *, #163, .T. ) ;
#131 = PERSON ( 'NEURÈENÝ', 'NEURÈENÝ', 'NEURÈENÝ', ('NEURÈENÝ'), ('NEURÈENÝ'), ('NEURÈENÝ') ) ;
#132 = CARTESIAN_POINT ( 'NONE',  ( 0.000000000000000000, 0.000000000000000000, 7.000000000000000000 ) ) ;
#133 = ORIENTED_EDGE ( 'NONE', *, *, #89, .T. ) ;
#134 = EDGE_LOOP ( 'NONE', ( #51, #219 ) ) ;
#135 = VECTOR ( 'NONE', #191, 1000.000000000000000 ) ;
#136 = ORIENTED_EDGE ( 'NONE', *, *, #89, .F. ) ;
#137 = PERSON_AND_ORGANIZATION_ROLE ( 'creator' ) ;
#138 = EDGE_LOOP ( 'NONE', ( #66, #116, #73, #147 ) ) ;
#139 = CARTESIAN_POINT ( 'NONE',  ( 0.000000000000000000, 0.000000000000000000, 7.000000000000000000 ) ) ;
#140 = EDGE_LOOP ( 'NONE', ( #75, #201, #102, #74 ) ) ;
#141 = APPLICATION_PROTOCOL_DEFINITION ( 'international standard', 'config_control_design', 1994, #232 ) ;
#142 = DIRECTION ( 'NONE',  ( 0.000000000000000000, 0.000000000000000000, 1.000000000000000000 ) ) ;
#143 = PRODUCT_RELATED_PRODUCT_CATEGORY ( 'detail', '', ( #124 ) ) ;
#144 = DIRECTION ( 'NONE',  ( 0.000000000000000000, 0.000000000000000000, 1.000000000000000000 ) ) ;
#145 = AXIS2_PLACEMENT_3D ( 'NONE', #172, #81, #226 ) ;
#146 = CARTESIAN_POINT ( 'NONE',  ( 0.000000000000000000, 0.000000000000000000, 7.000000000000000000 ) ) ;
#147 = ORIENTED_EDGE ( 'NONE', *, *, #221, .T. ) ;
#148 = CYLINDRICAL_SURFACE ( 'NONE', #168, 14.00000000000000000 ) ;
#149 = DIRECTION ( 'NONE',  ( 0.000000000000000000, 0.000000000000000000, 1.000000000000000000 ) ) ;
#150 = CYLINDRICAL_SURFACE ( 'NONE', #9, 10.00000000000000000 ) ;
#151 = VERTEX_POINT ( 'NONE', #112 ) ;
#152 = CALENDAR_DATE ( 2023, 13, 2 ) ;
#153 = COORDINATED_UNIVERSAL_TIME_OFFSET ( 1, 0, .AHEAD. ) ;
#154 = APPROVAL_PERSON_ORGANIZATION ( #43, #2, #174 ) ;
#155 = DIRECTION ( 'NONE',  ( 0.000000000000000000, 0.000000000000000000, 1.000000000000000000 ) ) ;
#156 = CLOSED_SHELL ( 'NONE', ( #46, #61, #235, #103, #122, #33, #110 ) ) ;
#157 = CALENDAR_DATE ( 2023, 13, 2 ) ;
#158 = EDGE_CURVE ( 'NONE', #216, #151, #188, .T. ) ;
#159 = AXIS2_PLACEMENT_3D ( 'NONE', #242, #186, #217 ) ;
#160 =( LENGTH_UNIT ( ) NAMED_UNIT ( * ) SI_UNIT ( .MILLI., .METRE. ) );
#161 = CIRCLE ( 'NONE', #200, 10.00000000000000000 ) ;
#162 = AXIS2_PLACEMENT_3D ( 'NONE', #185, #60, #204 ) ;
#163 = EDGE_CURVE ( 'NONE', #45, #30, #195, .T. ) ;
#164 = CARTESIAN_POINT ( 'NONE',  ( -10.00000000000000000, 0.000000000000000000, 400.0000000000000000 ) ) ;
#165 = CYLINDRICAL_SURFACE ( 'NONE', #159, 10.00000000000000000 ) ;
#166 = CC_DESIGN_PERSON_AND_ORGANIZATION_ASSIGNMENT ( #101, #254, ( #67 ) ) ;
#167 = LOCAL_TIME ( 9, 40, 45.00000000000000000, #104 ) ;
#168 = AXIS2_PLACEMENT_3D ( 'NONE', #132, #176, #202 ) ;
#169 = CARTESIAN_POINT ( 'NONE',  ( 0.000000000000000000, 0.000000000000000000, 7.000000000000000000 ) ) ;
#170 = VERTEX_POINT ( 'NONE', #215 ) ;
#171 = CALENDAR_DATE ( 2023, 13, 2 ) ;
#172 = CARTESIAN_POINT ( 'NONE',  ( 0.000000000000000000, 0.000000000000000000, 0.000000000000000000 ) ) ;
#173 = COORDINATED_UNIVERSAL_TIME_OFFSET ( 1, 0, .AHEAD. ) ;
#174 = APPROVAL_ROLE ( '' ) ;
#175 = ORIENTED_EDGE ( 'NONE', *, *, #41, .T. ) ;
#176 = DIRECTION ( 'NONE',  ( -0.000000000000000000, -0.000000000000000000, -1.000000000000000000 ) ) ;
#177 = PERSON_AND_ORGANIZATION ( #131, #87 ) ;
#178 = CC_DESIGN_PERSON_AND_ORGANIZATION_ASSIGNMENT ( #177, #229, ( #124 ) ) ;
#179 = ORIENTED_EDGE ( 'NONE', *, *, #85, .F. ) ;
#180 = CIRCLE ( 'NONE', #106, 14.00000000000000000 ) ;
#181 = DIRECTION ( 'NONE',  ( -0.000000000000000000, -0.000000000000000000, -1.000000000000000000 ) ) ;
#182 = EDGE_CURVE ( 'NONE', #64, #184, #161, .T. ) ;
#183 = ADVANCED_BREP_SHAPE_REPRESENTATION ( 'aed7', ( #218, #203 ), #225 ) ;
#184 = VERTEX_POINT ( 'NONE', #248 ) ;
#185 = CARTESIAN_POINT ( 'NONE',  ( 0.000000000000000000, 0.000000000000000000, 7.000000000000000000 ) ) ;
#186 = DIRECTION ( 'NONE',  ( -0.000000000000000000, -0.000000000000000000, -1.000000000000000000 ) ) ;
#187 = ORIENTED_EDGE ( 'NONE', *, *, #210, .T. ) ;
#188 = LINE ( 'NONE', #241, #135 ) ;
#189 = LINE ( 'NONE', #16, #193 ) ;
#190 = VERTEX_POINT ( 'NONE', #12 ) ;
#191 = DIRECTION ( 'NONE',  ( -0.000000000000000000, -0.000000000000000000, -1.000000000000000000 ) ) ;
#192 = DATE_AND_TIME ( #250, #209 ) ;
#193 = VECTOR ( 'NONE', #94, 1000.000000000000000 ) ;
#194 = PLANE ( 'NONE',  #114 ) ;
#195 = CIRCLE ( 'NONE', #90, 10.00000000000000000 ) ;
#196 = CC_DESIGN_PERSON_AND_ORGANIZATION_ASSIGNMENT ( #18, #37, ( #15 ) ) ;
#197 = EDGE_LOOP ( 'NONE', ( #27, #187, #109, #14 ) ) ;
#198 = DESIGN_CONTEXT ( 'detailed design', #232, 'design' ) ;
#199 = EDGE_CURVE ( 'NONE', #45, #64, #91, .T. ) ;
#200 = AXIS2_PLACEMENT_3D ( 'NONE', #169, #220, #17 ) ;
#201 = ORIENTED_EDGE ( 'NONE', *, *, #163, .F. ) ;
#202 = DIRECTION ( 'NONE',  ( -1.000000000000000000, 0.000000000000000000, 0.000000000000000000 ) ) ;
#203 = AXIS2_PLACEMENT_3D ( 'NONE', #86, #28, #108 ) ;
#204 = DIRECTION ( 'NONE',  ( 1.000000000000000000, 0.000000000000000000, 0.000000000000000000 ) ) ;
#205 = FACE_OUTER_BOUND ( 'NONE', #140, .T. ) ;
#206 = SECURITY_CLASSIFICATION_LEVEL ( 'unclassified' ) ;
#207 = APPROVAL_DATE_TIME ( #19, #2 ) ;
#208 = CARTESIAN_POINT ( 'NONE',  ( 0.000000000000000000, 0.000000000000000000, 0.000000000000000000 ) ) ;
#209 = LOCAL_TIME ( 9, 40, 45.00000000000000000, #173 ) ;
#210 = EDGE_CURVE ( 'NONE', #30, #184, #70, .T. ) ;
#211 = LOCAL_TIME ( 9, 40, 45.00000000000000000, #153 ) ;
#212 = EDGE_CURVE ( 'NONE', #216, #190, #38, .T. ) ;
#213 = UNCERTAINTY_MEASURE_WITH_UNIT (LENGTH_MEASURE( 1.000000000000000082E-05 ), #160, 'distance_accuracy_value', 'NONE');
#214 = APPROVAL ( #78, 'NEURÈENÝ' ) ;
#215 = CARTESIAN_POINT ( 'NONE',  ( -14.00000000000000000, 0.000000000000000000, 0.000000000000000000 ) ) ;
#216 = VERTEX_POINT ( 'NONE', #39 ) ;
#217 = DIRECTION ( 'NONE',  ( -1.000000000000000000, 0.000000000000000000, 0.000000000000000000 ) ) ;
#218 = MANIFOLD_SOLID_BREP ( 'Pøidat vysunutím3', #156 ) ;
#219 = ORIENTED_EDGE ( 'NONE', *, *, #128, .F. ) ;
#220 = DIRECTION ( 'NONE',  ( 0.000000000000000000, 0.000000000000000000, 1.000000000000000000 ) ) ;
#221 = EDGE_CURVE ( 'NONE', #170, #151, #180, .T. ) ;
#222 = PERSON_AND_ORGANIZATION ( #131, #87 ) ;
#223 = PERSON_AND_ORGANIZATION ( #131, #87 ) ;
#224 = DIRECTION ( 'NONE',  ( 1.000000000000000000, 0.000000000000000000, 0.000000000000000000 ) ) ;
#225 =( GEOMETRIC_REPRESENTATION_CONTEXT ( 3 ) GLOBAL_UNCERTAINTY_ASSIGNED_CONTEXT ( ( #213 ) ) GLOBAL_UNIT_ASSIGNED_CONTEXT ( ( #160, #32, #105 ) ) REPRESENTATION_CONTEXT ( 'NONE', 'WORKASPACE' ) );
#226 = DIRECTION ( 'NONE',  ( 1.000000000000000000, 0.000000000000000000, 0.000000000000000000 ) ) ;
#227 = PERSON_AND_ORGANIZATION ( #131, #87 ) ;
#228 = DIRECTION ( 'NONE',  ( 1.000000000000000000, 0.000000000000000000, -0.000000000000000000 ) ) ;
#229 = PERSON_AND_ORGANIZATION_ROLE ( 'design_owner' ) ;
#230 = DIRECTION ( 'NONE',  ( 1.000000000000000000, 0.000000000000000000, 0.000000000000000000 ) ) ;
#231 = FACE_OUTER_BOUND ( 'NONE', #138, .T. ) ;
#232 = APPLICATION_CONTEXT ( 'configuration controlled 3d designs of mechanical parts and assemblies' ) ;
#233 = PRODUCT_DEFINITION_SHAPE ( 'NONE', 'NONE',  #67 ) ;
#234 = ORIENTED_EDGE ( 'NONE', *, *, #221, .F. ) ;
#235 = ADVANCED_FACE ( 'NONE', ( #231 ), #62, .T. ) ;
#236 = DIRECTION ( 'NONE',  ( -1.000000000000000000, 0.000000000000000000, 0.000000000000000000 ) ) ;
#237 = CC_DESIGN_SECURITY_CLASSIFICATION ( #63, ( #15 ) ) ;
#238 = AXIS2_PLACEMENT_3D ( 'NONE', #146, #144, #246 ) ;
#239 = DIRECTION ( 'NONE',  ( -0.000000000000000000, -0.000000000000000000, -1.000000000000000000 ) ) ;
#240 = APPROVAL ( #117, 'NEURÈENÝ' ) ;
#241 = CARTESIAN_POINT ( 'NONE',  ( 14.00000000000000000, 1.714505518806294638E-15, 7.000000000000000000 ) ) ;
#242 = CARTESIAN_POINT ( 'NONE',  ( 0.000000000000000000, 0.000000000000000000, 400.0000000000000000 ) ) ;
#243 = APPROVAL_PERSON_ORGANIZATION ( #100, #240, #80 ) ;
#244 = EDGE_CURVE ( 'NONE', #30, #45, #125, .T. ) ;
#245 = CARTESIAN_POINT ( 'NONE',  ( 0.000000000000000000, 0.000000000000000000, 400.0000000000000000 ) ) ;
#246 = DIRECTION ( 'NONE',  ( 1.000000000000000000, 0.000000000000000000, 0.000000000000000000 ) ) ;
#247 = DATE_TIME_ROLE ( 'classification_date' ) ;
#248 = CARTESIAN_POINT ( 'NONE',  ( 10.00000000000000000, 1.224646799147353256E-15, 7.000000000000000000 ) ) ;
#249 = CARTESIAN_POINT ( 'NONE',  ( 10.00000000000000000, 1.224646799147353256E-15, 400.0000000000000000 ) ) ;
#250 = CALENDAR_DATE ( 2023, 13, 2 ) ;
#251 = DATE_TIME_ROLE ( 'creation_date' ) ;
#252 = EDGE_LOOP ( 'NONE', ( #234, #136 ) ) ;
#253 = APPROVAL_DATE_TIME ( #58, #240 ) ;
#254 = PERSON_AND_ORGANIZATION_ROLE ( 'creator' ) ;
#255 = CARTESIAN_POINT ( 'NONE',  ( 10.00000000000000000, 1.224646799147353256E-15, 400.0000000000000000 ) ) ;
ENDSEC;
END-ISO-10303-21;
