ISO-10303-21;
HEADER;
FILE_DESCRIPTION (( 'STEP AP203' ),
    '1' );
FILE_NAME ('b7d3.STEP',
    '2023-02-13T16:51:35',
    ( '' ),
    ( '' ),
    'SwSTEP 2.0',
    'SolidWorks 2019',
    '' );
FILE_SCHEMA (( 'CONFIG_CONTROL_DESIGN' ));
ENDSEC;

DATA;
#1 = EDGE_LOOP ( 'NONE', ( #252, #190, #12, #79 ) ) ;
#2 = ADVANCED_FACE ( 'NONE', ( #178 ), #155, .F. ) ;
#3 = AXIS2_PLACEMENT_3D ( 'NONE', #223, #5, #199 ) ;
#4 = APPROVAL_DATE_TIME ( #122, #42 ) ;
#5 = DIRECTION ( 'NONE',  ( 0.000000000000000000, 0.000000000000000000, 1.000000000000000000 ) ) ;
#6 = AXIS2_PLACEMENT_3D ( 'NONE', #130, #115, #88 ) ;
#7 = APPLICATION_CONTEXT ( 'configuration controlled 3d designs of mechanical parts and assemblies' ) ;
#8 = PLANE ( 'NONE',  #96 ) ;
#9 = CYLINDRICAL_SURFACE ( 'NONE', #89, 1.750000000000000000 ) ;
#10 = SECURITY_CLASSIFICATION ( '', '', #143 ) ;
#11 = CARTESIAN_POINT ( 'NONE',  ( 0.000000000000000000, 0.000000000000000000, 100.0000000000000000 ) ) ;
#12 = ORIENTED_EDGE ( 'NONE', *, *, #180, .T. ) ;
#13 = PRODUCT_DEFINITION_SHAPE ( 'NONE', 'NONE',  #149 ) ;
#14 = DIRECTION ( 'NONE',  ( 0.000000000000000000, 0.000000000000000000, 1.000000000000000000 ) ) ;
#15 = CC_DESIGN_DATE_AND_TIME_ASSIGNMENT ( #201, #30, ( #10 ) ) ;
#16 = CARTESIAN_POINT ( 'NONE',  ( -1.750000000000000000, 0.000000000000000000, 100.0000000000000000 ) ) ;
#17 = AXIS2_PLACEMENT_3D ( 'NONE', #243, #57, #116 ) ;
#18 = DIRECTION ( 'NONE',  ( -1.000000000000000000, 0.000000000000000000, 0.000000000000000000 ) ) ;
#19 = ORIENTED_EDGE ( 'NONE', *, *, #36, .F. ) ;
#20 = EDGE_CURVE ( 'NONE', #40, #179, #177, .T. ) ;
#21 = ORIENTED_EDGE ( 'NONE', *, *, #20, .F. ) ;
#22 = APPROVAL_ROLE ( '' ) ;
#23 = VERTEX_POINT ( 'NONE', #182 ) ;
#24 = VECTOR ( 'NONE', #146, 1000.000000000000000 ) ;
#25 = CYLINDRICAL_SURFACE ( 'NONE', #213, 1.750000000000000000 ) ;
#26 = ORIENTED_EDGE ( 'NONE', *, *, #180, .F. ) ;
#27 = PERSON ( 'NEURÈENÝ', 'NEURÈENÝ', 'NEURÈENÝ', ('NEURÈENÝ'), ('NEURÈENÝ'), ('NEURÈENÝ') ) ;
#28 = EDGE_CURVE ( 'NONE', #195, #160, #162, .T. ) ;
#29 = DIRECTION ( 'NONE',  ( 1.000000000000000000, 0.000000000000000000, 0.000000000000000000 ) ) ;
#30 = DATE_TIME_ROLE ( 'classification_date' ) ;
#31 = COORDINATED_UNIVERSAL_TIME_OFFSET ( 1, 0, .AHEAD. ) ;
#32 = PERSON_AND_ORGANIZATION ( #27, #95 ) ;
#33 = LOCAL_TIME ( 17, 51, 35.00000000000000000, #238 ) ;
#34 = CARTESIAN_POINT ( 'NONE',  ( -3.000000000000000444, 0.000000000000000000, 3.000000000000000000 ) ) ;
#35 = FACE_BOUND ( 'NONE', #194, .T. ) ;
#36 = EDGE_CURVE ( 'NONE', #44, #153, #239, .T. ) ;
#37 = CARTESIAN_POINT ( 'NONE',  ( -3.000000000000000444, 0.000000000000000000, 3.000000000000000000 ) ) ;
#38 = FACE_OUTER_BOUND ( 'NONE', #189, .T. ) ;
#39 = PRODUCT ( 'b7d3', 'b7d3', '', ( #255 ) ) ;
#40 = VERTEX_POINT ( 'NONE', #165 ) ;
#41 =( GEOMETRIC_REPRESENTATION_CONTEXT ( 3 ) GLOBAL_UNCERTAINTY_ASSIGNED_CONTEXT ( ( #249 ) ) GLOBAL_UNIT_ASSIGNED_CONTEXT ( ( #210, #104, #118 ) ) REPRESENTATION_CONTEXT ( 'NONE', 'WORKASPACE' ) );
#42 = APPROVAL ( #202, 'NEURÈENÝ' ) ;
#43 = COORDINATED_UNIVERSAL_TIME_OFFSET ( 1, 0, .AHEAD. ) ;
#44 = VERTEX_POINT ( 'NONE', #145 ) ;
#45 = CYLINDRICAL_SURFACE ( 'NONE', #237, 3.000000000000000444 ) ;
#46 = VECTOR ( 'NONE', #54, 1000.000000000000000 ) ;
#47 = ORIENTED_EDGE ( 'NONE', *, *, #168, .F. ) ;
#48 = PERSON_AND_ORGANIZATION ( #27, #95 ) ;
#49 = CALENDAR_DATE ( 2023, 13, 2 ) ;
#50 = AXIS2_PLACEMENT_3D ( 'NONE', #227, #132, #224 ) ;
#51 = CARTESIAN_POINT ( 'NONE',  ( 0.000000000000000000, 0.000000000000000000, 0.000000000000000000 ) ) ;
#52 = CARTESIAN_POINT ( 'NONE',  ( 1.750000000000000000, 2.143131898507867804E-16, 3.000000000000000000 ) ) ;
#53 = LOCAL_TIME ( 17, 51, 35.00000000000000000, #31 ) ;
#54 = DIRECTION ( 'NONE',  ( -0.000000000000000000, -0.000000000000000000, -1.000000000000000000 ) ) ;
#55 = PLANE ( 'NONE',  #151 ) ;
#56 = VECTOR ( 'NONE', #152, 1000.000000000000000 ) ;
#57 = DIRECTION ( 'NONE',  ( 0.000000000000000000, 0.000000000000000000, 1.000000000000000000 ) ) ;
#58 = CARTESIAN_POINT ( 'NONE',  ( 0.000000000000000000, 0.000000000000000000, 100.0000000000000000 ) ) ;
#59 = EDGE_LOOP ( 'NONE', ( #176, #81 ) ) ;
#60 = APPLICATION_PROTOCOL_DEFINITION ( 'international standard', 'config_control_design', 1994, #7 ) ;
#61 = CC_DESIGN_DATE_AND_TIME_ASSIGNMENT ( #78, #138, ( #149 ) ) ;
#62 = COORDINATED_UNIVERSAL_TIME_OFFSET ( 1, 0, .AHEAD. ) ;
#63 = ORIENTED_EDGE ( 'NONE', *, *, #217, .T. ) ;
#64 = CARTESIAN_POINT ( 'NONE',  ( 0.000000000000000000, 0.000000000000000000, 3.000000000000000000 ) ) ;
#65 = APPROVAL_DATE_TIME ( #164, #127 ) ;
#66 = APPROVAL_ROLE ( '' ) ;
#67 = EDGE_CURVE ( 'NONE', #153, #44, #220, .T. ) ;
#68 = CARTESIAN_POINT ( 'NONE',  ( 1.750000000000000000, 2.143131898507867804E-16, 100.0000000000000000 ) ) ;
#69 = APPROVAL_PERSON_ORGANIZATION ( #229, #141, #22 ) ;
#70 = ORIENTED_EDGE ( 'NONE', *, *, #171, .F. ) ;
#71 = FACE_OUTER_BOUND ( 'NONE', #59, .T. ) ;
#72 = LINE ( 'NONE', #16, #166 ) ;
#73 = LINE ( 'NONE', #172, #24 ) ;
#74 = PERSON_AND_ORGANIZATION_ROLE ( 'design_owner' ) ;
#75 = EDGE_LOOP ( 'NONE', ( #19, #101 ) ) ;
#76 = DIRECTION ( 'NONE',  ( -0.000000000000000000, -0.000000000000000000, -1.000000000000000000 ) ) ;
#77 = CC_DESIGN_APPROVAL ( #42, ( #10 ) ) ;
#78 = DATE_AND_TIME ( #120, #139 ) ;
#79 = ORIENTED_EDGE ( 'NONE', *, *, #251, .T. ) ;
#80 = DIRECTION ( 'NONE',  ( 1.000000000000000000, 0.000000000000000000, 0.000000000000000000 ) ) ;
#81 = ORIENTED_EDGE ( 'NONE', *, *, #20, .T. ) ;
#82 = CIRCLE ( 'NONE', #17, 1.750000000000000000 ) ;
#83 = DIRECTION ( 'NONE',  ( 1.000000000000000000, 0.000000000000000000, 0.000000000000000000 ) ) ;
#84 = SHAPE_DEFINITION_REPRESENTATION ( #13, #184 ) ;
#85 = AXIS2_PLACEMENT_3D ( 'NONE', #105, #136, #98 ) ;
#86 = ADVANCED_FACE ( 'NONE', ( #147 ), #9, .T. ) ;
#87 = CARTESIAN_POINT ( 'NONE',  ( 3.000000000000000444, 3.673940397442060361E-16, 3.000000000000000000 ) ) ;
#88 = DIRECTION ( 'NONE',  ( 1.000000000000000000, 0.000000000000000000, 0.000000000000000000 ) ) ;
#89 = AXIS2_PLACEMENT_3D ( 'NONE', #191, #91, #186 ) ;
#90 = CC_DESIGN_PERSON_AND_ORGANIZATION_ASSIGNMENT ( #48, #218, ( #236 ) ) ;
#91 = DIRECTION ( 'NONE',  ( -0.000000000000000000, -0.000000000000000000, -1.000000000000000000 ) ) ;
#92 = EDGE_LOOP ( 'NONE', ( #21, #225, #254, #157 ) ) ;
#93 = DIRECTION ( 'NONE',  ( 0.000000000000000000, 0.000000000000000000, 1.000000000000000000 ) ) ;
#94 = DIRECTION ( 'NONE',  ( -0.000000000000000000, -0.000000000000000000, -1.000000000000000000 ) ) ;
#95 = ORGANIZATION ( 'NEURÈENÝ', 'NEURÈENÝ', '' ) ;
#96 = AXIS2_PLACEMENT_3D ( 'NONE', #11, #93, #241 ) ;
#97 = CC_DESIGN_PERSON_AND_ORGANIZATION_ASSIGNMENT ( #137, #193, ( #149 ) ) ;
#98 = DIRECTION ( 'NONE',  ( 1.000000000000000000, 0.000000000000000000, 0.000000000000000000 ) ) ;
#99 = ORIENTED_EDGE ( 'NONE', *, *, #251, .F. ) ;
#100 = DIRECTION ( 'NONE',  ( 0.000000000000000000, 0.000000000000000000, 1.000000000000000000 ) ) ;
#101 = ORIENTED_EDGE ( 'NONE', *, *, #67, .F. ) ;
#102 = APPLICATION_PROTOCOL_DEFINITION ( 'international standard', 'config_control_design', 1994, #247 ) ;
#103 = CLOSED_SHELL ( 'NONE', ( #245, #226, #240, #135, #2, #86, #107 ) ) ;
#104 =( NAMED_UNIT ( * ) PLANE_ANGLE_UNIT ( ) SI_UNIT ( $, .RADIAN. ) );
#105 = CARTESIAN_POINT ( 'NONE',  ( 0.000000000000000000, 0.000000000000000000, 3.000000000000000000 ) ) ;
#106 = EDGE_LOOP ( 'NONE', ( #63, #161 ) ) ;
#107 = ADVANCED_FACE ( 'NONE', ( #113 ), #8, .T. ) ;
#108 = DIRECTION ( 'NONE',  ( 0.000000000000000000, 0.000000000000000000, 1.000000000000000000 ) ) ;
#109 = PERSON_AND_ORGANIZATION ( #27, #95 ) ;
#110 = CC_DESIGN_PERSON_AND_ORGANIZATION_ASSIGNMENT ( #125, #167, ( #10 ) ) ;
#111 = APPROVAL_ROLE ( '' ) ;
#112 = CIRCLE ( 'NONE', #85, 1.750000000000000000 ) ;
#113 = FACE_OUTER_BOUND ( 'NONE', #106, .T. ) ;
#114 = DESIGN_CONTEXT ( 'detailed design', #7, 'design' ) ;
#115 = DIRECTION ( 'NONE',  ( 0.000000000000000000, 0.000000000000000000, 1.000000000000000000 ) ) ;
#116 = DIRECTION ( 'NONE',  ( 1.000000000000000000, 0.000000000000000000, 0.000000000000000000 ) ) ;
#117 = CC_DESIGN_APPROVAL ( #127, ( #236 ) ) ;
#118 =( NAMED_UNIT ( * ) SI_UNIT ( $, .STERADIAN. ) SOLID_ANGLE_UNIT ( ) );
#119 = ORIENTED_EDGE ( 'NONE', *, *, #211, .T. ) ;
#120 = CALENDAR_DATE ( 2023, 13, 2 ) ;
#121 = CIRCLE ( 'NONE', #50, 3.000000000000000444 ) ;
#122 = DATE_AND_TIME ( #140, #53 ) ;
#123 = CARTESIAN_POINT ( 'NONE',  ( 0.000000000000000000, 0.000000000000000000, 3.000000000000000000 ) ) ;
#124 = LOCAL_TIME ( 17, 51, 35.00000000000000000, #250 ) ;
#125 = PERSON_AND_ORGANIZATION ( #27, #95 ) ;
#126 = DIRECTION ( 'NONE',  ( 0.000000000000000000, 0.000000000000000000, 1.000000000000000000 ) ) ;
#127 = APPROVAL ( #235, 'NEURÈENÝ' ) ;
#128 = APPROVAL_PERSON_ORGANIZATION ( #32, #42, #111 ) ;
#129 = DIRECTION ( 'NONE',  ( 0.000000000000000000, 0.000000000000000000, 1.000000000000000000 ) ) ;
#130 = CARTESIAN_POINT ( 'NONE',  ( 0.000000000000000000, 0.000000000000000000, 100.0000000000000000 ) ) ;
#131 = AXIS2_PLACEMENT_3D ( 'NONE', #51, #126, #83 ) ;
#132 = DIRECTION ( 'NONE',  ( 0.000000000000000000, 0.000000000000000000, 1.000000000000000000 ) ) ;
#133 = CALENDAR_DATE ( 2023, 13, 2 ) ;
#134 = CYLINDRICAL_SURFACE ( 'NONE', #187, 3.000000000000000444 ) ;
#135 = ADVANCED_FACE ( 'NONE', ( #35, #71 ), #55, .T. ) ;
#136 = DIRECTION ( 'NONE',  ( 0.000000000000000000, 0.000000000000000000, 1.000000000000000000 ) ) ;
#137 = PERSON_AND_ORGANIZATION ( #27, #95 ) ;
#138 = DATE_TIME_ROLE ( 'creation_date' ) ;
#139 = LOCAL_TIME ( 17, 51, 35.00000000000000000, #43 ) ;
#140 = CALENDAR_DATE ( 2023, 13, 2 ) ;
#141 = APPROVAL ( #230, 'NEURÈENÝ' ) ;
#142 = DIRECTION ( 'NONE',  ( 1.000000000000000000, 0.000000000000000000, 0.000000000000000000 ) ) ;
#143 = SECURITY_CLASSIFICATION_LEVEL ( 'unclassified' ) ;
#144 = CIRCLE ( 'NONE', #6, 1.750000000000000000 ) ;
#145 = CARTESIAN_POINT ( 'NONE',  ( -3.000000000000000444, 0.000000000000000000, 0.000000000000000000 ) ) ;
#146 = DIRECTION ( 'NONE',  ( -0.000000000000000000, -0.000000000000000000, -1.000000000000000000 ) ) ;
#147 = FACE_OUTER_BOUND ( 'NONE', #1, .T. ) ;
#148 = CARTESIAN_POINT ( 'NONE',  ( -1.750000000000000000, 0.000000000000000000, 3.000000000000000000 ) ) ;
#149 = PRODUCT_DEFINITION ( 'NEZNÁMÝ', '', #236, #114 ) ;
#150 = CARTESIAN_POINT ( 'NONE',  ( 0.000000000000000000, 0.000000000000000000, 3.000000000000000000 ) ) ;
#151 = AXIS2_PLACEMENT_3D ( 'NONE', #150, #129, #246 ) ;
#152 = DIRECTION ( 'NONE',  ( -0.000000000000000000, -0.000000000000000000, -1.000000000000000000 ) ) ;
#153 = VERTEX_POINT ( 'NONE', #206 ) ;
#154 = FACE_OUTER_BOUND ( 'NONE', #216, .T. ) ;
#155 = PLANE ( 'NONE',  #3 ) ;
#156 = DATE_AND_TIME ( #133, #124 ) ;
#157 = ORIENTED_EDGE ( 'NONE', *, *, #211, .F. ) ;
#158 = APPROVAL_DATE_TIME ( #156, #141 ) ;
#159 = VERTEX_POINT ( 'NONE', #68 ) ;
#160 = VERTEX_POINT ( 'NONE', #148 ) ;
#161 = ORIENTED_EDGE ( 'NONE', *, *, #168, .T. ) ;
#162 = CIRCLE ( 'NONE', #200, 1.750000000000000000 ) ;
#163 = EDGE_CURVE ( 'NONE', #159, #195, #73, .T. ) ;
#164 = DATE_AND_TIME ( #49, #33 ) ;
#165 = CARTESIAN_POINT ( 'NONE',  ( 3.000000000000000444, 3.673940397442060361E-16, 3.000000000000000000 ) ) ;
#166 = VECTOR ( 'NONE', #94, 1000.000000000000000 ) ;
#167 = PERSON_AND_ORGANIZATION_ROLE ( 'classification_officer' ) ;
#168 = EDGE_CURVE ( 'NONE', #159, #23, #82, .T. ) ;
#169 = FACE_OUTER_BOUND ( 'NONE', #92, .T. ) ;
#170 = ORIENTED_EDGE ( 'NONE', *, *, #36, .T. ) ;
#171 = EDGE_CURVE ( 'NONE', #179, #40, #121, .T. ) ;
#172 = CARTESIAN_POINT ( 'NONE',  ( 1.750000000000000000, 2.143131898507867804E-16, 100.0000000000000000 ) ) ;
#173 = LINE ( 'NONE', #87, #56 ) ;
#174 = LOCAL_TIME ( 17, 51, 35.00000000000000000, #62 ) ;
#175 = PERSON_AND_ORGANIZATION ( #27, #95 ) ;
#176 = ORIENTED_EDGE ( 'NONE', *, *, #171, .T. ) ;
#177 = CIRCLE ( 'NONE', #228, 3.000000000000000444 ) ;
#178 = FACE_OUTER_BOUND ( 'NONE', #75, .T. ) ;
#179 = VERTEX_POINT ( 'NONE', #37 ) ;
#180 = EDGE_CURVE ( 'NONE', #23, #160, #72, .T. ) ;
#181 = PERSON_AND_ORGANIZATION ( #27, #95 ) ;
#182 = CARTESIAN_POINT ( 'NONE',  ( -1.750000000000000000, 0.000000000000000000, 100.0000000000000000 ) ) ;
#183 = EDGE_CURVE ( 'NONE', #40, #153, #173, .T. ) ;
#184 = ADVANCED_BREP_SHAPE_REPRESENTATION ( 'b7d3', ( #233, #231 ), #41 ) ;
#185 = CC_DESIGN_PERSON_AND_ORGANIZATION_ASSIGNMENT ( #181, #74, ( #39 ) ) ;
#186 = DIRECTION ( 'NONE',  ( -1.000000000000000000, 0.000000000000000000, 0.000000000000000000 ) ) ;
#187 = AXIS2_PLACEMENT_3D ( 'NONE', #197, #232, #18 ) ;
#188 = DIRECTION ( 'NONE',  ( 1.000000000000000000, 0.000000000000000000, 0.000000000000000000 ) ) ;
#189 = EDGE_LOOP ( 'NONE', ( #248, #70, #119, #170 ) ) ;
#190 = ORIENTED_EDGE ( 'NONE', *, *, #217, .F. ) ;
#191 = CARTESIAN_POINT ( 'NONE',  ( 0.000000000000000000, 0.000000000000000000, 100.0000000000000000 ) ) ;
#192 = CC_DESIGN_SECURITY_CLASSIFICATION ( #10, ( #236 ) ) ;
#193 = PERSON_AND_ORGANIZATION_ROLE ( 'creator' ) ;
#194 = EDGE_LOOP ( 'NONE', ( #99, #209 ) ) ;
#195 = VERTEX_POINT ( 'NONE', #52 ) ;
#196 = CARTESIAN_POINT ( 'NONE',  ( 0.000000000000000000, 0.000000000000000000, 0.000000000000000000 ) ) ;
#197 = CARTESIAN_POINT ( 'NONE',  ( 0.000000000000000000, 0.000000000000000000, 3.000000000000000000 ) ) ;
#198 = DIRECTION ( 'NONE',  ( -0.000000000000000000, -0.000000000000000000, -1.000000000000000000 ) ) ;
#199 = DIRECTION ( 'NONE',  ( 1.000000000000000000, 0.000000000000000000, -0.000000000000000000 ) ) ;
#200 = AXIS2_PLACEMENT_3D ( 'NONE', #64, #219, #142 ) ;
#201 = DATE_AND_TIME ( #222, #174 ) ;
#202 = APPROVAL_STATUS ( 'not_yet_approved' ) ;
#203 = PRODUCT_RELATED_PRODUCT_CATEGORY ( 'detail', '', ( #39 ) ) ;
#204 = AXIS2_PLACEMENT_3D ( 'NONE', #221, #14, #188 ) ;
#205 = LINE ( 'NONE', #34, #46 ) ;
#206 = CARTESIAN_POINT ( 'NONE',  ( 3.000000000000000444, 3.673940397442060361E-16, 0.000000000000000000 ) ) ;
#207 = CC_DESIGN_PERSON_AND_ORGANIZATION_ASSIGNMENT ( #109, #215, ( #236 ) ) ;
#208 = APPROVAL_PERSON_ORGANIZATION ( #175, #127, #66 ) ;
#209 = ORIENTED_EDGE ( 'NONE', *, *, #28, .F. ) ;
#210 =( LENGTH_UNIT ( ) NAMED_UNIT ( * ) SI_UNIT ( .MILLI., .METRE. ) );
#211 = EDGE_CURVE ( 'NONE', #179, #44, #205, .T. ) ;
#212 = CARTESIAN_POINT ( 'NONE',  ( 0.000000000000000000, 0.000000000000000000, 3.000000000000000000 ) ) ;
#213 = AXIS2_PLACEMENT_3D ( 'NONE', #58, #76, #253 ) ;
#214 = ORIENTED_EDGE ( 'NONE', *, *, #28, .T. ) ;
#215 = PERSON_AND_ORGANIZATION_ROLE ( 'creator' ) ;
#216 = EDGE_LOOP ( 'NONE', ( #47, #242, #214, #26 ) ) ;
#217 = EDGE_CURVE ( 'NONE', #23, #159, #144, .T. ) ;
#218 = PERSON_AND_ORGANIZATION_ROLE ( 'design_supplier' ) ;
#219 = DIRECTION ( 'NONE',  ( 0.000000000000000000, 0.000000000000000000, 1.000000000000000000 ) ) ;
#220 = CIRCLE ( 'NONE', #204, 3.000000000000000444 ) ;
#221 = CARTESIAN_POINT ( 'NONE',  ( 0.000000000000000000, 0.000000000000000000, 0.000000000000000000 ) ) ;
#222 = CALENDAR_DATE ( 2023, 13, 2 ) ;
#223 = CARTESIAN_POINT ( 'NONE',  ( 0.000000000000000000, 0.000000000000000000, 0.000000000000000000 ) ) ;
#224 = DIRECTION ( 'NONE',  ( 1.000000000000000000, 0.000000000000000000, 0.000000000000000000 ) ) ;
#225 = ORIENTED_EDGE ( 'NONE', *, *, #183, .T. ) ;
#226 = ADVANCED_FACE ( 'NONE', ( #169 ), #45, .T. ) ;
#227 = CARTESIAN_POINT ( 'NONE',  ( 0.000000000000000000, 0.000000000000000000, 3.000000000000000000 ) ) ;
#228 = AXIS2_PLACEMENT_3D ( 'NONE', #123, #108, #29 ) ;
#229 = PERSON_AND_ORGANIZATION ( #27, #95 ) ;
#230 = APPROVAL_STATUS ( 'not_yet_approved' ) ;
#231 = AXIS2_PLACEMENT_3D ( 'NONE', #196, #100, #80 ) ;
#232 = DIRECTION ( 'NONE',  ( -0.000000000000000000, -0.000000000000000000, -1.000000000000000000 ) ) ;
#233 = MANIFOLD_SOLID_BREP ( 'Pøidat vysunutím3', #103 ) ;
#234 = DIRECTION ( 'NONE',  ( -1.000000000000000000, 0.000000000000000000, 0.000000000000000000 ) ) ;
#235 = APPROVAL_STATUS ( 'not_yet_approved' ) ;
#236 = PRODUCT_DEFINITION_FORMATION_WITH_SPECIFIED_SOURCE ( 'LIBOVOLNÝ', '', #39, .NOT_KNOWN. ) ;
#237 = AXIS2_PLACEMENT_3D ( 'NONE', #212, #198, #234 ) ;
#238 = COORDINATED_UNIVERSAL_TIME_OFFSET ( 1, 0, .AHEAD. ) ;
#239 = CIRCLE ( 'NONE', #131, 3.000000000000000444 ) ;
#240 = ADVANCED_FACE ( 'NONE', ( #38 ), #134, .T. ) ;
#241 = DIRECTION ( 'NONE',  ( 1.000000000000000000, 0.000000000000000000, -0.000000000000000000 ) ) ;
#242 = ORIENTED_EDGE ( 'NONE', *, *, #163, .T. ) ;
#243 = CARTESIAN_POINT ( 'NONE',  ( 0.000000000000000000, 0.000000000000000000, 100.0000000000000000 ) ) ;
#244 = CC_DESIGN_APPROVAL ( #141, ( #149 ) ) ;
#245 = ADVANCED_FACE ( 'NONE', ( #154 ), #25, .T. ) ;
#246 = DIRECTION ( 'NONE',  ( 1.000000000000000000, 0.000000000000000000, -0.000000000000000000 ) ) ;
#247 = APPLICATION_CONTEXT ( 'configuration controlled 3d designs of mechanical parts and assemblies' ) ;
#248 = ORIENTED_EDGE ( 'NONE', *, *, #183, .F. ) ;
#249 = UNCERTAINTY_MEASURE_WITH_UNIT (LENGTH_MEASURE( 1.000000000000000082E-05 ), #210, 'distance_accuracy_value', 'NONE');
#250 = COORDINATED_UNIVERSAL_TIME_OFFSET ( 1, 0, .AHEAD. ) ;
#251 = EDGE_CURVE ( 'NONE', #160, #195, #112, .T. ) ;
#252 = ORIENTED_EDGE ( 'NONE', *, *, #163, .F. ) ;
#253 = DIRECTION ( 'NONE',  ( -1.000000000000000000, 0.000000000000000000, 0.000000000000000000 ) ) ;
#254 = ORIENTED_EDGE ( 'NONE', *, *, #67, .T. ) ;
#255 = MECHANICAL_CONTEXT ( 'NONE', #247, 'mechanical' ) ;
ENDSEC;
END-ISO-10303-21;
