ISO-10303-21;
HEADER;
FILE_DESCRIPTION (( 'STEP AP203' ),
    '1' );
FILE_NAME ('8271.STEP',
    '2023-02-13T08:42:00',
    ( '' ),
    ( '' ),
    'SwSTEP 2.0',
    'SolidWorks 2019',
    '' );
FILE_SCHEMA (( 'CONFIG_CONTROL_DESIGN' ));
ENDSEC;

DATA;
#1 = CARTESIAN_POINT ( 'NONE',  ( 0.000000000000000000, 0.000000000000000000, 7.000000000000000000 ) ) ;
#2 = DIRECTION ( 'NONE',  ( 0.000000000000000000, 0.000000000000000000, 1.000000000000000000 ) ) ;
#3 = MECHANICAL_CONTEXT ( 'NONE', #158, 'mechanical' ) ;
#4 = AXIS2_PLACEMENT_3D ( 'NONE', #196, #153, #234 ) ;
#5 = FACE_OUTER_BOUND ( 'NONE', #105, .T. ) ;
#6 = AXIS2_PLACEMENT_3D ( 'NONE', #233, #168, #174 ) ;
#7 = DIRECTION ( 'NONE',  ( 0.000000000000000000, 0.000000000000000000, 1.000000000000000000 ) ) ;
#8 = APPROVAL_DATE_TIME ( #24, #40 ) ;
#9 = DIRECTION ( 'NONE',  ( 1.000000000000000000, 0.000000000000000000, -0.000000000000000000 ) ) ;
#10 = SHAPE_DEFINITION_REPRESENTATION ( #206, #19 ) ;
#11 = PLANE ( 'NONE',  #235 ) ;
#12 = EDGE_LOOP ( 'NONE', ( #103, #156 ) ) ;
#13 = CALENDAR_DATE ( 2023, 13, 2 ) ;
#14 = DIRECTION ( 'NONE',  ( 1.000000000000000000, 0.000000000000000000, 0.000000000000000000 ) ) ;
#15 = COORDINATED_UNIVERSAL_TIME_OFFSET ( 1, 0, .AHEAD. ) ;
#16 = ORIENTED_EDGE ( 'NONE', *, *, #22, .T. ) ;
#17 = PERSON_AND_ORGANIZATION ( #55, #123 ) ;
#18 =( NAMED_UNIT ( * ) PLANE_ANGLE_UNIT ( ) SI_UNIT ( $, .RADIAN. ) );
#19 = ADVANCED_BREP_SHAPE_REPRESENTATION ( '8271', ( #162, #148 ), #35 ) ;
#20 = AXIS2_PLACEMENT_3D ( 'NONE', #1, #23, #41 ) ;
#21 = ORIENTED_EDGE ( 'NONE', *, *, #128, .F. ) ;
#22 = EDGE_CURVE ( 'NONE', #46, #179, #120, .T. ) ;
#23 = DIRECTION ( 'NONE',  ( 0.000000000000000000, 0.000000000000000000, 1.000000000000000000 ) ) ;
#24 = DATE_AND_TIME ( #244, #205 ) ;
#25 = APPROVAL ( #247, 'NEURÈENÝ' ) ;
#26 = APPLICATION_CONTEXT ( 'configuration controlled 3d designs of mechanical parts and assemblies' ) ;
#27 = DIRECTION ( 'NONE',  ( 1.000000000000000000, 0.000000000000000000, 0.000000000000000000 ) ) ;
#28 = CIRCLE ( 'NONE', #60, 14.00000000000000000 ) ;
#29 = CYLINDRICAL_SURFACE ( 'NONE', #6, 14.00000000000000000 ) ;
#30 = CARTESIAN_POINT ( 'NONE',  ( 10.00000000000000000, 1.224646799147353059E-15, 100.0000000000000000 ) ) ;
#31 = DIRECTION ( 'NONE',  ( -1.000000000000000000, 0.000000000000000000, 0.000000000000000000 ) ) ;
#32 = DIRECTION ( 'NONE',  ( 1.000000000000000000, 0.000000000000000000, 0.000000000000000000 ) ) ;
#33 = PERSON_AND_ORGANIZATION_ROLE ( 'design_supplier' ) ;
#34 = CARTESIAN_POINT ( 'NONE',  ( 0.000000000000000000, 0.000000000000000000, 0.000000000000000000 ) ) ;
#35 =( GEOMETRIC_REPRESENTATION_CONTEXT ( 3 ) GLOBAL_UNCERTAINTY_ASSIGNED_CONTEXT ( ( #242 ) ) GLOBAL_UNIT_ASSIGNED_CONTEXT ( ( #165, #18, #84 ) ) REPRESENTATION_CONTEXT ( 'NONE', 'WORKASPACE' ) );
#36 = CIRCLE ( 'NONE', #219, 10.00000000000000000 ) ;
#37 = ORIENTED_EDGE ( 'NONE', *, *, #225, .T. ) ;
#38 = AXIS2_PLACEMENT_3D ( 'NONE', #189, #227, #31 ) ;
#39 = ORIENTED_EDGE ( 'NONE', *, *, #143, .T. ) ;
#40 = APPROVAL ( #111, 'NEURÈENÝ' ) ;
#41 = DIRECTION ( 'NONE',  ( 1.000000000000000000, 0.000000000000000000, -0.000000000000000000 ) ) ;
#42 = SECURITY_CLASSIFICATION ( '', '', #50 ) ;
#43 = DATE_TIME_ROLE ( 'creation_date' ) ;
#44 = CLOSED_SHELL ( 'NONE', ( #243, #170, #175, #45, #154, #180, #100 ) ) ;
#45 = ADVANCED_FACE ( 'NONE', ( #238, #204 ), #107, .T. ) ;
#46 = VERTEX_POINT ( 'NONE', #184 ) ;
#47 = CARTESIAN_POINT ( 'NONE',  ( -10.00000000000000000, 0.000000000000000000, 100.0000000000000000 ) ) ;
#48 = CARTESIAN_POINT ( 'NONE',  ( 10.00000000000000000, 1.224646799147353059E-15, 100.0000000000000000 ) ) ;
#49 = VECTOR ( 'NONE', #138, 1000.000000000000000 ) ;
#50 = SECURITY_CLASSIFICATION_LEVEL ( 'unclassified' ) ;
#51 = DIRECTION ( 'NONE',  ( 1.000000000000000000, 0.000000000000000000, 0.000000000000000000 ) ) ;
#52 = CC_DESIGN_PERSON_AND_ORGANIZATION_ASSIGNMENT ( #251, #57, ( #42 ) ) ;
#53 = AXIS2_PLACEMENT_3D ( 'NONE', #231, #136, #81 ) ;
#54 = VERTEX_POINT ( 'NONE', #86 ) ;
#55 = PERSON ( 'NEURÈENÝ', 'NEURÈENÝ', 'NEURÈENÝ', ('NEURÈENÝ'), ('NEURÈENÝ'), ('NEURÈENÝ') ) ;
#56 = CARTESIAN_POINT ( 'NONE',  ( 0.000000000000000000, 0.000000000000000000, 7.000000000000000000 ) ) ;
#57 = PERSON_AND_ORGANIZATION_ROLE ( 'classification_officer' ) ;
#58 = CARTESIAN_POINT ( 'NONE',  ( 14.00000000000000000, 1.714505518806294638E-15, 0.000000000000000000 ) ) ;
#59 = PERSON_AND_ORGANIZATION ( #55, #123 ) ;
#60 = AXIS2_PLACEMENT_3D ( 'NONE', #56, #113, #149 ) ;
#61 = ORIENTED_EDGE ( 'NONE', *, *, #214, .F. ) ;
#62 = AXIS2_PLACEMENT_3D ( 'NONE', #34, #2, #64 ) ;
#63 = EDGE_LOOP ( 'NONE', ( #137, #142 ) ) ;
#64 = DIRECTION ( 'NONE',  ( 1.000000000000000000, 0.000000000000000000, 0.000000000000000000 ) ) ;
#65 = CARTESIAN_POINT ( 'NONE',  ( -14.00000000000000000, 0.000000000000000000, 7.000000000000000000 ) ) ;
#66 = CARTESIAN_POINT ( 'NONE',  ( 0.000000000000000000, 0.000000000000000000, 0.000000000000000000 ) ) ;
#67 = DIRECTION ( 'NONE',  ( -0.000000000000000000, -0.000000000000000000, -1.000000000000000000 ) ) ;
#68 = EDGE_CURVE ( 'NONE', #163, #178, #85, .T. ) ;
#69 = LINE ( 'NONE', #47, #152 ) ;
#70 = DIRECTION ( 'NONE',  ( 0.000000000000000000, 0.000000000000000000, 1.000000000000000000 ) ) ;
#71 = EDGE_CURVE ( 'NONE', #144, #179, #229, .T. ) ;
#72 = CARTESIAN_POINT ( 'NONE',  ( 0.000000000000000000, 0.000000000000000000, 7.000000000000000000 ) ) ;
#73 = DIRECTION ( 'NONE',  ( -1.000000000000000000, 0.000000000000000000, 0.000000000000000000 ) ) ;
#74 = ORIENTED_EDGE ( 'NONE', *, *, #96, .T. ) ;
#75 = CIRCLE ( 'NONE', #155, 14.00000000000000000 ) ;
#76 = DATE_AND_TIME ( #13, #116 ) ;
#77 = CARTESIAN_POINT ( 'NONE',  ( 14.00000000000000000, 1.714505518806294638E-15, 7.000000000000000000 ) ) ;
#78 = CC_DESIGN_PERSON_AND_ORGANIZATION_ASSIGNMENT ( #17, #198, ( #106 ) ) ;
#79 = AXIS2_PLACEMENT_3D ( 'NONE', #245, #70, #32 ) ;
#80 = LOCAL_TIME ( 9, 42, 0.000000000000000000, #160 ) ;
#81 = DIRECTION ( 'NONE',  ( -1.000000000000000000, 0.000000000000000000, 0.000000000000000000 ) ) ;
#82 = ORIENTED_EDGE ( 'NONE', *, *, #214, .T. ) ;
#83 = ORIENTED_EDGE ( 'NONE', *, *, #68, .F. ) ;
#84 =( NAMED_UNIT ( * ) SI_UNIT ( $, .STERADIAN. ) SOLID_ANGLE_UNIT ( ) );
#85 = LINE ( 'NONE', #65, #146 ) ;
#86 = CARTESIAN_POINT ( 'NONE',  ( -10.00000000000000000, 0.000000000000000000, 100.0000000000000000 ) ) ;
#87 = DATE_AND_TIME ( #109, #236 ) ;
#88 = AXIS2_PLACEMENT_3D ( 'NONE', #98, #119, #73 ) ;
#89 = ORIENTED_EDGE ( 'NONE', *, *, #128, .T. ) ;
#90 = APPROVAL_STATUS ( 'not_yet_approved' ) ;
#91 = FACE_OUTER_BOUND ( 'NONE', #183, .T. ) ;
#92 = CIRCLE ( 'NONE', #79, 10.00000000000000000 ) ;
#93 = APPLICATION_PROTOCOL_DEFINITION ( 'international standard', 'config_control_design', 1994, #26 ) ;
#94 = DIRECTION ( 'NONE',  ( 1.000000000000000000, 0.000000000000000000, 0.000000000000000000 ) ) ;
#95 = CC_DESIGN_APPROVAL ( #40, ( #193 ) ) ;
#96 = EDGE_CURVE ( 'NONE', #117, #222, #192, .T. ) ;
#97 = CARTESIAN_POINT ( 'NONE',  ( 0.000000000000000000, 0.000000000000000000, 100.0000000000000000 ) ) ;
#98 = CARTESIAN_POINT ( 'NONE',  ( 0.000000000000000000, 0.000000000000000000, 100.0000000000000000 ) ) ;
#99 = ORIENTED_EDGE ( 'NONE', *, *, #237, .T. ) ;
#100 = ADVANCED_FACE ( 'NONE', ( #91 ), #115, .T. ) ;
#101 = FACE_OUTER_BOUND ( 'NONE', #172, .T. ) ;
#102 = APPROVAL_ROLE ( '' ) ;
#103 = ORIENTED_EDGE ( 'NONE', *, *, #221, .F. ) ;
#104 = ORIENTED_EDGE ( 'NONE', *, *, #71, .T. ) ;
#105 = EDGE_LOOP ( 'NONE', ( #220, #228, #218, #203 ) ) ;
#106 = PRODUCT_DEFINITION_FORMATION_WITH_SPECIFIED_SOURCE ( 'LIBOVOLNÝ', '', #161, .NOT_KNOWN. ) ;
#107 = PLANE ( 'NONE',  #20 ) ;
#108 = APPLICATION_PROTOCOL_DEFINITION ( 'international standard', 'config_control_design', 1994, #158 ) ;
#109 = CALENDAR_DATE ( 2023, 13, 2 ) ;
#111 = APPROVAL_STATUS ( 'not_yet_approved' ) ;
#110 = CC_DESIGN_PERSON_AND_ORGANIZATION_ASSIGNMENT ( #59, #33, ( #106 ) ) ;
#112 = COORDINATED_UNIVERSAL_TIME_OFFSET ( 1, 0, .AHEAD. ) ;
#113 = DIRECTION ( 'NONE',  ( 0.000000000000000000, 0.000000000000000000, 1.000000000000000000 ) ) ;
#114 = PERSON_AND_ORGANIZATION_ROLE ( 'design_owner' ) ;
#115 = PLANE ( 'NONE',  #215 ) ;
#116 = LOCAL_TIME ( 9, 42, 0.000000000000000000, #141 ) ;
#117 = VERTEX_POINT ( 'NONE', #77 ) ;
#118 = DIRECTION ( 'NONE',  ( -0.000000000000000000, -0.000000000000000000, -1.000000000000000000 ) ) ;
#119 = DIRECTION ( 'NONE',  ( -0.000000000000000000, -0.000000000000000000, -1.000000000000000000 ) ) ;
#120 = CIRCLE ( 'NONE', #254, 10.00000000000000000 ) ;
#121 = EDGE_CURVE ( 'NONE', #163, #117, #239, .T. ) ;
#122 = DIRECTION ( 'NONE',  ( 0.000000000000000000, 0.000000000000000000, 1.000000000000000000 ) ) ;
#123 = ORGANIZATION ( 'NEURÈENÝ', 'NEURÈENÝ', '' ) ;
#124 = CC_DESIGN_DATE_AND_TIME_ASSIGNMENT ( #87, #43, ( #193 ) ) ;
#125 = ORIENTED_EDGE ( 'NONE', *, *, #143, .F. ) ;
#126 = DIRECTION ( 'NONE',  ( 0.000000000000000000, 0.000000000000000000, 1.000000000000000000 ) ) ;
#127 = CC_DESIGN_APPROVAL ( #166, ( #106 ) ) ;
#128 = EDGE_CURVE ( 'NONE', #117, #163, #28, .T. ) ;
#129 = PERSON_AND_ORGANIZATION ( #55, #123 ) ;
#130 = PERSON_AND_ORGANIZATION ( #55, #123 ) ;
#131 = PRODUCT_RELATED_PRODUCT_CATEGORY ( 'detail', '', ( #161 ) ) ;
#132 = DIRECTION ( 'NONE',  ( -0.000000000000000000, -0.000000000000000000, -1.000000000000000000 ) ) ;
#133 = DIRECTION ( 'NONE',  ( 0.000000000000000000, 0.000000000000000000, 1.000000000000000000 ) ) ;
#134 = AXIS2_PLACEMENT_3D ( 'NONE', #194, #216, #94 ) ;
#135 = DATE_TIME_ROLE ( 'classification_date' ) ;
#136 = DIRECTION ( 'NONE',  ( -0.000000000000000000, -0.000000000000000000, -1.000000000000000000 ) ) ;
#137 = ORIENTED_EDGE ( 'NONE', *, *, #22, .F. ) ;
#138 = DIRECTION ( 'NONE',  ( -0.000000000000000000, -0.000000000000000000, -1.000000000000000000 ) ) ;
#139 = DIRECTION ( 'NONE',  ( 1.000000000000000000, 0.000000000000000000, -0.000000000000000000 ) ) ;
#140 = CC_DESIGN_APPROVAL ( #25, ( #42 ) ) ;
#141 = COORDINATED_UNIVERSAL_TIME_OFFSET ( 1, 0, .AHEAD. ) ;
#142 = ORIENTED_EDGE ( 'NONE', *, *, #225, .F. ) ;
#143 = EDGE_CURVE ( 'NONE', #54, #144, #92, .T. ) ;
#144 = VERTEX_POINT ( 'NONE', #48 ) ;
#145 = DESIGN_CONTEXT ( 'detailed design', #26, 'design' ) ;
#146 = VECTOR ( 'NONE', #67, 1000.000000000000000 ) ;
#147 = CC_DESIGN_DATE_AND_TIME_ASSIGNMENT ( #176, #135, ( #42 ) ) ;
#148 = AXIS2_PLACEMENT_3D ( 'NONE', #66, #122, #185 ) ;
#149 = DIRECTION ( 'NONE',  ( 1.000000000000000000, 0.000000000000000000, 0.000000000000000000 ) ) ;
#150 = FACE_OUTER_BOUND ( 'NONE', #12, .T. ) ;
#151 = CYLINDRICAL_SURFACE ( 'NONE', #53, 10.00000000000000000 ) ;
#152 = VECTOR ( 'NONE', #132, 1000.000000000000000 ) ;
#153 = DIRECTION ( 'NONE',  ( 0.000000000000000000, 0.000000000000000000, 1.000000000000000000 ) ) ;
#154 = ADVANCED_FACE ( 'NONE', ( #150 ), #11, .F. ) ;
#155 = AXIS2_PLACEMENT_3D ( 'NONE', #246, #7, #14 ) ;
#156 = ORIENTED_EDGE ( 'NONE', *, *, #253, .F. ) ;
#157 = CALENDAR_DATE ( 2023, 13, 2 ) ;
#158 = APPLICATION_CONTEXT ( 'configuration controlled 3d designs of mechanical parts and assemblies' ) ;
#159 = FACE_OUTER_BOUND ( 'NONE', #252, .T. ) ;
#160 = COORDINATED_UNIVERSAL_TIME_OFFSET ( 1, 0, .AHEAD. ) ;
#161 = PRODUCT ( '8271', '8271', '', ( #3 ) ) ;
#162 = MANIFOLD_SOLID_BREP ( 'Pøidat vysunutím3', #44 ) ;
#163 = VERTEX_POINT ( 'NONE', #248 ) ;
#164 = ORIENTED_EDGE ( 'NONE', *, *, #121, .T. ) ;
#165 =( LENGTH_UNIT ( ) NAMED_UNIT ( * ) SI_UNIT ( .MILLI., .METRE. ) );
#166 = APPROVAL ( #90, 'NEURÈENÝ' ) ;
#167 = CC_DESIGN_PERSON_AND_ORGANIZATION_ASSIGNMENT ( #207, #226, ( #193 ) ) ;
#168 = DIRECTION ( 'NONE',  ( -0.000000000000000000, -0.000000000000000000, -1.000000000000000000 ) ) ;
#169 = CYLINDRICAL_SURFACE ( 'NONE', #88, 10.00000000000000000 ) ;
#170 = ADVANCED_FACE ( 'NONE', ( #101 ), #29, .T. ) ;
#171 = CARTESIAN_POINT ( 'NONE',  ( 14.00000000000000000, 1.714505518806294638E-15, 7.000000000000000000 ) ) ;
#172 = EDGE_LOOP ( 'NONE', ( #21, #74, #181, #83 ) ) ;
#173 = PERSON_AND_ORGANIZATION ( #55, #123 ) ;
#174 = DIRECTION ( 'NONE',  ( -1.000000000000000000, 0.000000000000000000, 0.000000000000000000 ) ) ;
#175 = ADVANCED_FACE ( 'NONE', ( #5 ), #212, .T. ) ;
#176 = DATE_AND_TIME ( #249, #80 ) ;
#177 = CIRCLE ( 'NONE', #62, 14.00000000000000000 ) ;
#178 = VERTEX_POINT ( 'NONE', #250 ) ;
#179 = VERTEX_POINT ( 'NONE', #211 ) ;
#180 = ADVANCED_FACE ( 'NONE', ( #159 ), #169, .T. ) ;
#181 = ORIENTED_EDGE ( 'NONE', *, *, #253, .T. ) ;
#182 = VECTOR ( 'NONE', #118, 1000.000000000000000 ) ;
#183 = EDGE_LOOP ( 'NONE', ( #39, #82 ) ) ;
#184 = CARTESIAN_POINT ( 'NONE',  ( -10.00000000000000000, 0.000000000000000000, 7.000000000000000000 ) ) ;
#185 = DIRECTION ( 'NONE',  ( 1.000000000000000000, 0.000000000000000000, 0.000000000000000000 ) ) ;
#186 = EDGE_LOOP ( 'NONE', ( #164, #89 ) ) ;
#187 = COORDINATED_UNIVERSAL_TIME_OFFSET ( 1, 0, .AHEAD. ) ;
#188 = DIRECTION ( 'NONE',  ( 0.000000000000000000, 0.000000000000000000, 1.000000000000000000 ) ) ;
#189 = CARTESIAN_POINT ( 'NONE',  ( 0.000000000000000000, 0.000000000000000000, 7.000000000000000000 ) ) ;
#190 = APPROVAL_ROLE ( '' ) ;
#191 = APPROVAL_PERSON_ORGANIZATION ( #129, #166, #230 ) ;
#192 = LINE ( 'NONE', #171, #49 ) ;
#193 = PRODUCT_DEFINITION ( 'NEZNÁMÝ', '', #106, #145 ) ;
#194 = CARTESIAN_POINT ( 'NONE',  ( 0.000000000000000000, 0.000000000000000000, 7.000000000000000000 ) ) ;
#195 = ORIENTED_EDGE ( 'NONE', *, *, #71, .F. ) ;
#196 = CARTESIAN_POINT ( 'NONE',  ( 0.000000000000000000, 0.000000000000000000, 100.0000000000000000 ) ) ;
#197 = DATE_AND_TIME ( #157, #223 ) ;
#198 = PERSON_AND_ORGANIZATION_ROLE ( 'creator' ) ;
#199 = APPROVAL_DATE_TIME ( #76, #166 ) ;
#200 = APPROVAL_PERSON_ORGANIZATION ( #224, #40, #190 ) ;
#201 = CIRCLE ( 'NONE', #4, 10.00000000000000000 ) ;
#202 = CC_DESIGN_PERSON_AND_ORGANIZATION_ASSIGNMENT ( #130, #114, ( #161 ) ) ;
#203 = ORIENTED_EDGE ( 'NONE', *, *, #221, .T. ) ;
#204 = FACE_OUTER_BOUND ( 'NONE', #186, .T. ) ;
#205 = LOCAL_TIME ( 9, 42, 0.000000000000000000, #187 ) ;
#206 = PRODUCT_DEFINITION_SHAPE ( 'NONE', 'NONE',  #193 ) ;
#207 = PERSON_AND_ORGANIZATION ( #55, #123 ) ;
#208 = CARTESIAN_POINT ( 'NONE',  ( 0.000000000000000000, 0.000000000000000000, 7.000000000000000000 ) ) ;
#209 = FACE_OUTER_BOUND ( 'NONE', #255, .T. ) ;
#210 = CARTESIAN_POINT ( 'NONE',  ( 0.000000000000000000, 0.000000000000000000, 0.000000000000000000 ) ) ;
#211 = CARTESIAN_POINT ( 'NONE',  ( 10.00000000000000000, 1.224646799147353059E-15, 7.000000000000000000 ) ) ;
#212 = CYLINDRICAL_SURFACE ( 'NONE', #38, 14.00000000000000000 ) ;
#213 = ORIENTED_EDGE ( 'NONE', *, *, #237, .F. ) ;
#214 = EDGE_CURVE ( 'NONE', #144, #54, #201, .T. ) ;
#215 = AXIS2_PLACEMENT_3D ( 'NONE', #97, #133, #139 ) ;
#216 = DIRECTION ( 'NONE',  ( 0.000000000000000000, 0.000000000000000000, 1.000000000000000000 ) ) ;
#217 = APPROVAL_DATE_TIME ( #197, #25 ) ;
#218 = ORIENTED_EDGE ( 'NONE', *, *, #68, .T. ) ;
#219 = AXIS2_PLACEMENT_3D ( 'NONE', #72, #240, #51 ) ;
#220 = ORIENTED_EDGE ( 'NONE', *, *, #96, .F. ) ;
#221 = EDGE_CURVE ( 'NONE', #178, #222, #75, .T. ) ;
#222 = VERTEX_POINT ( 'NONE', #58 ) ;
#223 = LOCAL_TIME ( 9, 42, 0.000000000000000000, #15 ) ;
#224 = PERSON_AND_ORGANIZATION ( #55, #123 ) ;
#225 = EDGE_CURVE ( 'NONE', #179, #46, #36, .T. ) ;
#226 = PERSON_AND_ORGANIZATION_ROLE ( 'creator' ) ;
#227 = DIRECTION ( 'NONE',  ( -0.000000000000000000, -0.000000000000000000, -1.000000000000000000 ) ) ;
#228 = ORIENTED_EDGE ( 'NONE', *, *, #121, .F. ) ;
#229 = LINE ( 'NONE', #30, #182 ) ;
#230 = APPROVAL_ROLE ( '' ) ;
#231 = CARTESIAN_POINT ( 'NONE',  ( 0.000000000000000000, 0.000000000000000000, 100.0000000000000000 ) ) ;
#232 = CC_DESIGN_SECURITY_CLASSIFICATION ( #42, ( #106 ) ) ;
#233 = CARTESIAN_POINT ( 'NONE',  ( 0.000000000000000000, 0.000000000000000000, 7.000000000000000000 ) ) ;
#234 = DIRECTION ( 'NONE',  ( 1.000000000000000000, 0.000000000000000000, 0.000000000000000000 ) ) ;
#235 = AXIS2_PLACEMENT_3D ( 'NONE', #210, #188, #9 ) ;
#236 = LOCAL_TIME ( 9, 42, 0.000000000000000000, #112 ) ;
#237 = EDGE_CURVE ( 'NONE', #54, #46, #69, .T. ) ;
#238 = FACE_BOUND ( 'NONE', #63, .T. ) ;
#239 = CIRCLE ( 'NONE', #134, 14.00000000000000000 ) ;
#240 = DIRECTION ( 'NONE',  ( 0.000000000000000000, 0.000000000000000000, 1.000000000000000000 ) ) ;
#241 = APPROVAL_PERSON_ORGANIZATION ( #173, #25, #102 ) ;
#242 = UNCERTAINTY_MEASURE_WITH_UNIT (LENGTH_MEASURE( 1.000000000000000082E-05 ), #165, 'distance_accuracy_value', 'NONE');
#243 = ADVANCED_FACE ( 'NONE', ( #209 ), #151, .T. ) ;
#244 = CALENDAR_DATE ( 2023, 13, 2 ) ;
#245 = CARTESIAN_POINT ( 'NONE',  ( 0.000000000000000000, 0.000000000000000000, 100.0000000000000000 ) ) ;
#246 = CARTESIAN_POINT ( 'NONE',  ( 0.000000000000000000, 0.000000000000000000, 0.000000000000000000 ) ) ;
#247 = APPROVAL_STATUS ( 'not_yet_approved' ) ;
#248 = CARTESIAN_POINT ( 'NONE',  ( -14.00000000000000000, 0.000000000000000000, 7.000000000000000000 ) ) ;
#249 = CALENDAR_DATE ( 2023, 13, 2 ) ;
#250 = CARTESIAN_POINT ( 'NONE',  ( -14.00000000000000000, 0.000000000000000000, 0.000000000000000000 ) ) ;
#251 = PERSON_AND_ORGANIZATION ( #55, #123 ) ;
#252 = EDGE_LOOP ( 'NONE', ( #195, #125, #99, #16 ) ) ;
#253 = EDGE_CURVE ( 'NONE', #222, #178, #177, .T. ) ;
#254 = AXIS2_PLACEMENT_3D ( 'NONE', #208, #126, #27 ) ;
#255 = EDGE_LOOP ( 'NONE', ( #61, #104, #37, #213 ) ) ;
ENDSEC;
END-ISO-10303-21;
