ISO-10303-21;
HEADER;
FILE_DESCRIPTION (( 'STEP AP203' ),
    '1' );
FILE_NAME ('3e80.STEP',
    '2023-02-13T10:37:16',
    ( '' ),
    ( '' ),
    'SwSTEP 2.0',
    'SolidWorks 2019',
    '' );
FILE_SCHEMA (( 'CONFIG_CONTROL_DESIGN' ));
ENDSEC;

DATA;
#1 = EDGE_LOOP ( 'NONE', ( #185, #30 ) ) ;
#2 = APPROVAL_STATUS ( 'not_yet_approved' ) ;
#3 = EDGE_LOOP ( 'NONE', ( #123, #62, #64, #70 ) ) ;
#4 = DIRECTION ( 'NONE',  ( 1.000000000000000000, 0.000000000000000000, 0.000000000000000000 ) ) ;
#5 = AXIS2_PLACEMENT_3D ( 'NONE', #75, #146, #126 ) ;
#6 = LINE ( 'NONE', #69, #98 ) ;
#7 = VERTEX_POINT ( 'NONE', #183 ) ;
#8 = EDGE_CURVE ( 'NONE', #217, #22, #13, .T. ) ;
#9 = DIRECTION ( 'NONE',  ( 1.000000000000000000, 0.000000000000000000, -0.000000000000000000 ) ) ;
#10 = CC_DESIGN_DATE_AND_TIME_ASSIGNMENT ( #103, #219, ( #180 ) ) ;
#11 = CC_DESIGN_APPROVAL ( #17, ( #180 ) ) ;
#12 = DIRECTION ( 'NONE',  ( -1.000000000000000000, 0.000000000000000000, 0.000000000000000000 ) ) ;
#13 = CIRCLE ( 'NONE', #151, 9.000000000000000000 ) ;
#14 = CARTESIAN_POINT ( 'NONE',  ( 0.000000000000000000, 0.000000000000000000, 630.0000000000000000 ) ) ;
#15 = CYLINDRICAL_SURFACE ( 'NONE', #178, 6.250000000000000000 ) ;
#16 = FACE_OUTER_BOUND ( 'NONE', #46, .T. ) ;
#17 = APPROVAL ( #2, 'NEURÈENÝ' ) ;
#18 = APPLICATION_PROTOCOL_DEFINITION ( 'international standard', 'config_control_design', 1994, #25 ) ;
#19 = PERSON_AND_ORGANIZATION_ROLE ( 'classification_officer' ) ;
#20 = DIRECTION ( 'NONE',  ( 1.000000000000000000, 0.000000000000000000, 0.000000000000000000 ) ) ;
#21 = EDGE_CURVE ( 'NONE', #39, #22, #6, .T. ) ;
#22 = VERTEX_POINT ( 'NONE', #162 ) ;
#23 = APPROVAL_DATE_TIME ( #195, #132 ) ;
#24 = ORIENTED_EDGE ( 'NONE', *, *, #215, .F. ) ;
#25 = APPLICATION_CONTEXT ( 'configuration controlled 3d designs of mechanical parts and assemblies' ) ;
#26 = VERTEX_POINT ( 'NONE', #108 ) ;
#27 = ORGANIZATION ( 'NEURÈENÝ', 'NEURÈENÝ', '' ) ;
#28 = DIRECTION ( 'NONE',  ( -0.000000000000000000, -0.000000000000000000, -1.000000000000000000 ) ) ;
#29 = EDGE_CURVE ( 'NONE', #7, #39, #66, .T. ) ;
#30 = ORIENTED_EDGE ( 'NONE', *, *, #102, .T. ) ;
#31 = DIRECTION ( 'NONE',  ( 0.000000000000000000, 0.000000000000000000, 1.000000000000000000 ) ) ;
#32 = CARTESIAN_POINT ( 'NONE',  ( 6.250000000000000000, 7.654042494670957606E-16, 630.0000000000000000 ) ) ;
#33 = LINE ( 'NONE', #190, #174 ) ;
#34 = CARTESIAN_POINT ( 'NONE',  ( 0.000000000000000000, 0.000000000000000000, 630.0000000000000000 ) ) ;
#35 = ADVANCED_FACE ( 'NONE', ( #221 ), #87, .F. ) ;
#36 = APPROVAL_STATUS ( 'not_yet_approved' ) ;
#37 = PERSON_AND_ORGANIZATION_ROLE ( 'design_supplier' ) ;
#38 = DATE_AND_TIME ( #152, #168 ) ;
#39 = VERTEX_POINT ( 'NONE', #226 ) ;
#40 = APPROVAL_STATUS ( 'not_yet_approved' ) ;
#41 = CARTESIAN_POINT ( 'NONE',  ( 0.000000000000000000, 0.000000000000000000, 0.000000000000000000 ) ) ;
#42 = AXIS2_PLACEMENT_3D ( 'NONE', #157, #199, #182 ) ;
#43 = ORIENTED_EDGE ( 'NONE', *, *, #21, .T. ) ;
#44 = PLANE ( 'NONE',  #197 ) ;
#45 = AXIS2_PLACEMENT_3D ( 'NONE', #189, #96, #166 ) ;
#46 = EDGE_LOOP ( 'NONE', ( #110, #242, #203, #241 ) ) ;
#47 = DIRECTION ( 'NONE',  ( -0.000000000000000000, -0.000000000000000000, -1.000000000000000000 ) ) ;
#48 = ADVANCED_FACE ( 'NONE', ( #142 ), #44, .T. ) ;
#49 = FACE_OUTER_BOUND ( 'NONE', #179, .T. ) ;
#50 = EDGE_CURVE ( 'NONE', #86, #26, #33, .T. ) ;
#51 = DIRECTION ( 'NONE',  ( -1.000000000000000000, 0.000000000000000000, 0.000000000000000000 ) ) ;
#52 = CC_DESIGN_PERSON_AND_ORGANIZATION_ASSIGNMENT ( #170, #19, ( #223 ) ) ;
#53 = FACE_BOUND ( 'NONE', #187, .T. ) ;
#54 = CARTESIAN_POINT ( 'NONE',  ( 0.000000000000000000, 0.000000000000000000, 7.000000000000000000 ) ) ;
#55 = CIRCLE ( 'NONE', #5, 9.000000000000000000 ) ;
#56 = APPROVAL_ROLE ( '' ) ;
#57 = ORIENTED_EDGE ( 'NONE', *, *, #215, .T. ) ;
#58 = MANIFOLD_SOLID_BREP ( 'Pøidat vysunutím3', #249 ) ;
#59 = EDGE_CURVE ( 'NONE', #105, #26, #220, .T. ) ;
#60 = PERSON_AND_ORGANIZATION ( #156, #27 ) ;
#61 =( NAMED_UNIT ( * ) PLANE_ANGLE_UNIT ( ) SI_UNIT ( $, .RADIAN. ) );
#62 = ORIENTED_EDGE ( 'NONE', *, *, #139, .F. ) ;
#63 = VECTOR ( 'NONE', #232, 1000.000000000000000 ) ;
#64 = ORIENTED_EDGE ( 'NONE', *, *, #227, .T. ) ;
#65 = CC_DESIGN_APPROVAL ( #132, ( #81 ) ) ;
#66 = CIRCLE ( 'NONE', #42, 9.000000000000000000 ) ;
#67 = EDGE_CURVE ( 'NONE', #26, #105, #88, .T. ) ;
#68 = DESIGN_CONTEXT ( 'detailed design', #25, 'design' ) ;
#69 = CARTESIAN_POINT ( 'NONE',  ( 9.000000000000000000, 1.102182119232617714E-15, 7.000000000000000000 ) ) ;
#70 = ORIENTED_EDGE ( 'NONE', *, *, #59, .T. ) ;
#71 = APPROVAL_PERSON_ORGANIZATION ( #60, #200, #216 ) ;
#72 = DIRECTION ( 'NONE',  ( 0.000000000000000000, 0.000000000000000000, 1.000000000000000000 ) ) ;
#73 = CARTESIAN_POINT ( 'NONE',  ( 0.000000000000000000, 0.000000000000000000, 7.000000000000000000 ) ) ;
#74 = AXIS2_PLACEMENT_3D ( 'NONE', #95, #112, #93 ) ;
#75 = CARTESIAN_POINT ( 'NONE',  ( 0.000000000000000000, 0.000000000000000000, 0.000000000000000000 ) ) ;
#76 = LINE ( 'NONE', #147, #63 ) ;
#77 = AXIS2_PLACEMENT_3D ( 'NONE', #41, #243, #140 ) ;
#78 = FACE_OUTER_BOUND ( 'NONE', #137, .T. ) ;
#79 = CALENDAR_DATE ( 2023, 13, 2 ) ;
#80 = DATE_TIME_ROLE ( 'classification_date' ) ;
#81 = PRODUCT_DEFINITION_FORMATION_WITH_SPECIFIED_SOURCE ( 'LIBOVOLNÝ', '', #171, .NOT_KNOWN. ) ;
#82 = ORIENTED_EDGE ( 'NONE', *, *, #8, .F. ) ;
#83 = AXIS2_PLACEMENT_3D ( 'NONE', #111, #247, #114 ) ;
#84 = PERSON_AND_ORGANIZATION ( #156, #27 ) ;
#85 = CC_DESIGN_DATE_AND_TIME_ASSIGNMENT ( #128, #80, ( #223 ) ) ;
#86 = VERTEX_POINT ( 'NONE', #32 ) ;
#87 = PLANE ( 'NONE',  #77 ) ;
#88 = CIRCLE ( 'NONE', #225, 6.250000000000000000 ) ;
#89 = ORIENTED_EDGE ( 'NONE', *, *, #181, .F. ) ;
#90 = ADVANCED_FACE ( 'NONE', ( #192 ), #210, .T. ) ;
#91 = CARTESIAN_POINT ( 'NONE',  ( -6.250000000000000000, 0.000000000000000000, 630.0000000000000000 ) ) ;
#92 = CC_DESIGN_SECURITY_CLASSIFICATION ( #223, ( #81 ) ) ;
#93 = DIRECTION ( 'NONE',  ( 1.000000000000000000, 0.000000000000000000, 0.000000000000000000 ) ) ;
#94 = PRODUCT_RELATED_PRODUCT_CATEGORY ( 'detail', '', ( #171 ) ) ;
#95 = CARTESIAN_POINT ( 'NONE',  ( 0.000000000000000000, 0.000000000000000000, 7.000000000000000000 ) ) ;
#96 = DIRECTION ( 'NONE',  ( -0.000000000000000000, -0.000000000000000000, -1.000000000000000000 ) ) ;
#97 = DIRECTION ( 'NONE',  ( 1.000000000000000000, 0.000000000000000000, 0.000000000000000000 ) ) ;
#98 = VECTOR ( 'NONE', #28, 1000.000000000000000 ) ;
#99 = PERSON_AND_ORGANIZATION ( #156, #27 ) ;
#100 = PERSON_AND_ORGANIZATION_ROLE ( 'creator' ) ;
#101 = PERSON_AND_ORGANIZATION_ROLE ( 'design_owner' ) ;
#102 = EDGE_CURVE ( 'NONE', #86, #237, #109, .T. ) ;
#103 = DATE_AND_TIME ( #254, #191 ) ;
#104 = CIRCLE ( 'NONE', #153, 6.250000000000000000 ) ;
#105 = VERTEX_POINT ( 'NONE', #193 ) ;
#106 = CC_DESIGN_PERSON_AND_ORGANIZATION_ASSIGNMENT ( #212, #37, ( #81 ) ) ;
#107 = ORIENTED_EDGE ( 'NONE', *, *, #59, .F. ) ;
#108 = CARTESIAN_POINT ( 'NONE',  ( 6.250000000000000000, 7.654042494670957606E-16, 7.000000000000000000 ) ) ;
#109 = CIRCLE ( 'NONE', #240, 6.250000000000000000 ) ;
#110 = ORIENTED_EDGE ( 'NONE', *, *, #102, .F. ) ;
#111 = CARTESIAN_POINT ( 'NONE',  ( 0.000000000000000000, 0.000000000000000000, 7.000000000000000000 ) ) ;
#112 = DIRECTION ( 'NONE',  ( 0.000000000000000000, 0.000000000000000000, 1.000000000000000000 ) ) ;
#113 = DIRECTION ( 'NONE',  ( -0.000000000000000000, -0.000000000000000000, -1.000000000000000000 ) ) ;
#114 = DIRECTION ( 'NONE',  ( 1.000000000000000000, 0.000000000000000000, 0.000000000000000000 ) ) ;
#115 = DIRECTION ( 'NONE',  ( -1.000000000000000000, 0.000000000000000000, 0.000000000000000000 ) ) ;
#116 = PERSON_AND_ORGANIZATION ( #156, #27 ) ;
#117 = ADVANCED_FACE ( 'NONE', ( #16 ), #15, .T. ) ;
#118 = SECURITY_CLASSIFICATION_LEVEL ( 'unclassified' ) ;
#119 = DIRECTION ( 'NONE',  ( 0.000000000000000000, 0.000000000000000000, 1.000000000000000000 ) ) ;
#120 = COORDINATED_UNIVERSAL_TIME_OFFSET ( 1, 0, .AHEAD. ) ;
#121 = CALENDAR_DATE ( 2023, 13, 2 ) ;
#122 = EDGE_LOOP ( 'NONE', ( #82, #24 ) ) ;
#123 = ORIENTED_EDGE ( 'NONE', *, *, #50, .F. ) ;
#124 = ORIENTED_EDGE ( 'NONE', *, *, #194, .T. ) ;
#125 = LINE ( 'NONE', #251, #207 ) ;
#126 = DIRECTION ( 'NONE',  ( 1.000000000000000000, 0.000000000000000000, 0.000000000000000000 ) ) ;
#127 = DIRECTION ( 'NONE',  ( -0.000000000000000000, -0.000000000000000000, -1.000000000000000000 ) ) ;
#128 = DATE_AND_TIME ( #79, #248 ) ;
#129 = AXIS2_PLACEMENT_3D ( 'NONE', #175, #119, #20 ) ;
#130 = CC_DESIGN_APPROVAL ( #200, ( #223 ) ) ;
#131 = APPLICATION_PROTOCOL_DEFINITION ( 'international standard', 'config_control_design', 1994, #160 ) ;
#132 = APPROVAL ( #40, 'NEURÈENÝ' ) ;
#133 = COORDINATED_UNIVERSAL_TIME_OFFSET ( 1, 0, .AHEAD. ) ;
#134 =( GEOMETRIC_REPRESENTATION_CONTEXT ( 3 ) GLOBAL_UNCERTAINTY_ASSIGNED_CONTEXT ( ( #161 ) ) GLOBAL_UNIT_ASSIGNED_CONTEXT ( ( #177, #61, #238 ) ) REPRESENTATION_CONTEXT ( 'NONE', 'WORKASPACE' ) );
#135 = ORIENTED_EDGE ( 'NONE', *, *, #8, .T. ) ;
#136 = AXIS2_PLACEMENT_3D ( 'NONE', #73, #113, #51 ) ;
#137 = EDGE_LOOP ( 'NONE', ( #246, #124 ) ) ;
#138 = SHAPE_DEFINITION_REPRESENTATION ( #236, #229 ) ;
#139 = EDGE_CURVE ( 'NONE', #237, #86, #104, .T. ) ;
#140 = DIRECTION ( 'NONE',  ( 1.000000000000000000, 0.000000000000000000, -0.000000000000000000 ) ) ;
#141 = CC_DESIGN_PERSON_AND_ORGANIZATION_ASSIGNMENT ( #211, #100, ( #180 ) ) ;
#142 = FACE_OUTER_BOUND ( 'NONE', #1, .T. ) ;
#143 = AXIS2_PLACEMENT_3D ( 'NONE', #54, #204, #9 ) ;
#144 = CARTESIAN_POINT ( 'NONE',  ( 0.000000000000000000, 0.000000000000000000, 630.0000000000000000 ) ) ;
#145 = DIRECTION ( 'NONE',  ( 1.000000000000000000, 0.000000000000000000, 0.000000000000000000 ) ) ;
#146 = DIRECTION ( 'NONE',  ( 0.000000000000000000, 0.000000000000000000, 1.000000000000000000 ) ) ;
#147 = CARTESIAN_POINT ( 'NONE',  ( -6.250000000000000000, 0.000000000000000000, 630.0000000000000000 ) ) ;
#148 = ADVANCED_FACE ( 'NONE', ( #49 ), #169, .T. ) ;
#149 = FACE_OUTER_BOUND ( 'NONE', #3, .T. ) ;
#150 = CALENDAR_DATE ( 2023, 13, 2 ) ;
#151 = AXIS2_PLACEMENT_3D ( 'NONE', #201, #159, #4 ) ;
#152 = CALENDAR_DATE ( 2023, 13, 2 ) ;
#153 = AXIS2_PLACEMENT_3D ( 'NONE', #14, #228, #208 ) ;
#154 = APPROVAL_DATE_TIME ( #38, #17 ) ;
#155 = ORIENTED_EDGE ( 'NONE', *, *, #194, .F. ) ;
#156 = PERSON ( 'NEURÈENÝ', 'NEURÈENÝ', 'NEURÈENÝ', ('NEURÈENÝ'), ('NEURÈENÝ'), ('NEURÈENÝ') ) ;
#157 = CARTESIAN_POINT ( 'NONE',  ( 0.000000000000000000, 0.000000000000000000, 7.000000000000000000 ) ) ;
#158 = DATE_AND_TIME ( #150, #218 ) ;
#159 = DIRECTION ( 'NONE',  ( 0.000000000000000000, 0.000000000000000000, 1.000000000000000000 ) ) ;
#160 = APPLICATION_CONTEXT ( 'configuration controlled 3d designs of mechanical parts and assemblies' ) ;
#161 = UNCERTAINTY_MEASURE_WITH_UNIT (LENGTH_MEASURE( 1.000000000000000082E-05 ), #177, 'distance_accuracy_value', 'NONE');
#162 = CARTESIAN_POINT ( 'NONE',  ( 9.000000000000000000, 1.102182119232617714E-15, 0.000000000000000000 ) ) ;
#163 = APPROVAL_DATE_TIME ( #158, #200 ) ;
#164 = APPROVAL_PERSON_ORGANIZATION ( #99, #17, #214 ) ;
#165 = DIRECTION ( 'NONE',  ( 1.000000000000000000, 0.000000000000000000, -0.000000000000000000 ) ) ;
#166 = DIRECTION ( 'NONE',  ( -1.000000000000000000, 0.000000000000000000, 0.000000000000000000 ) ) ;
#167 = DIRECTION ( 'NONE',  ( 0.000000000000000000, 0.000000000000000000, 1.000000000000000000 ) ) ;
#168 = LOCAL_TIME ( 11, 37, 16.00000000000000000, #133 ) ;
#169 = CYLINDRICAL_SURFACE ( 'NONE', #245, 9.000000000000000000 ) ;
#170 = PERSON_AND_ORGANIZATION ( #156, #27 ) ;
#171 = PRODUCT ( '3e80', '3e80', '', ( #235 ) ) ;
#172 = COORDINATED_UNIVERSAL_TIME_OFFSET ( 1, 0, .AHEAD. ) ;
#173 = PERSON_AND_ORGANIZATION_ROLE ( 'creator' ) ;
#174 = VECTOR ( 'NONE', #127, 1000.000000000000000 ) ;
#175 = CARTESIAN_POINT ( 'NONE',  ( 0.000000000000000000, 0.000000000000000000, 0.000000000000000000 ) ) ;
#176 = ORIENTED_EDGE ( 'NONE', *, *, #21, .F. ) ;
#177 =( LENGTH_UNIT ( ) NAMED_UNIT ( * ) SI_UNIT ( .MILLI., .METRE. ) );
#178 = AXIS2_PLACEMENT_3D ( 'NONE', #144, #47, #115 ) ;
#179 = EDGE_LOOP ( 'NONE', ( #176, #244, #224, #135 ) ) ;
#180 = PRODUCT_DEFINITION ( 'NEZNÁMÝ', '', #81, #68 ) ;
#181 = EDGE_CURVE ( 'NONE', #7, #217, #125, .T. ) ;
#182 = DIRECTION ( 'NONE',  ( 1.000000000000000000, 0.000000000000000000, 0.000000000000000000 ) ) ;
#183 = CARTESIAN_POINT ( 'NONE',  ( -9.000000000000000000, 0.000000000000000000, 7.000000000000000000 ) ) ;
#184 = CC_DESIGN_PERSON_AND_ORGANIZATION_ASSIGNMENT ( #84, #101, ( #171 ) ) ;
#185 = ORIENTED_EDGE ( 'NONE', *, *, #139, .T. ) ;
#186 = CIRCLE ( 'NONE', #74, 9.000000000000000000 ) ;
#187 = EDGE_LOOP ( 'NONE', ( #107, #188 ) ) ;
#188 = ORIENTED_EDGE ( 'NONE', *, *, #67, .F. ) ;
#189 = CARTESIAN_POINT ( 'NONE',  ( 0.000000000000000000, 0.000000000000000000, 630.0000000000000000 ) ) ;
#190 = CARTESIAN_POINT ( 'NONE',  ( 6.250000000000000000, 7.654042494670957606E-16, 630.0000000000000000 ) ) ;
#191 = LOCAL_TIME ( 11, 37, 16.00000000000000000, #198 ) ;
#192 = FACE_OUTER_BOUND ( 'NONE', #213, .T. ) ;
#193 = CARTESIAN_POINT ( 'NONE',  ( -6.250000000000000000, 0.000000000000000000, 7.000000000000000000 ) ) ;
#194 = EDGE_CURVE ( 'NONE', #39, #7, #186, .T. ) ;
#195 = DATE_AND_TIME ( #121, #255 ) ;
#196 = COORDINATED_UNIVERSAL_TIME_OFFSET ( 1, 0, .AHEAD. ) ;
#197 = AXIS2_PLACEMENT_3D ( 'NONE', #202, #31, #165 ) ;
#198 = COORDINATED_UNIVERSAL_TIME_OFFSET ( 1, 0, .AHEAD. ) ;
#199 = DIRECTION ( 'NONE',  ( 0.000000000000000000, 0.000000000000000000, 1.000000000000000000 ) ) ;
#200 = APPROVAL ( #36, 'NEURÈENÝ' ) ;
#201 = CARTESIAN_POINT ( 'NONE',  ( 0.000000000000000000, 0.000000000000000000, 0.000000000000000000 ) ) ;
#202 = CARTESIAN_POINT ( 'NONE',  ( 0.000000000000000000, 0.000000000000000000, 630.0000000000000000 ) ) ;
#203 = ORIENTED_EDGE ( 'NONE', *, *, #67, .T. ) ;
#204 = DIRECTION ( 'NONE',  ( 0.000000000000000000, 0.000000000000000000, 1.000000000000000000 ) ) ;
#205 = ADVANCED_FACE ( 'NONE', ( #149 ), #250, .T. ) ;
#206 = CARTESIAN_POINT ( 'NONE',  ( 0.000000000000000000, 0.000000000000000000, 7.000000000000000000 ) ) ;
#207 = VECTOR ( 'NONE', #253, 1000.000000000000000 ) ;
#208 = DIRECTION ( 'NONE',  ( 1.000000000000000000, 0.000000000000000000, 0.000000000000000000 ) ) ;
#209 = CARTESIAN_POINT ( 'NONE',  ( -9.000000000000000000, 0.000000000000000000, 0.000000000000000000 ) ) ;
#210 = CYLINDRICAL_SURFACE ( 'NONE', #136, 9.000000000000000000 ) ;
#211 = PERSON_AND_ORGANIZATION ( #156, #27 ) ;
#212 = PERSON_AND_ORGANIZATION ( #156, #27 ) ;
#213 = EDGE_LOOP ( 'NONE', ( #155, #43, #57, #89 ) ) ;
#214 = APPROVAL_ROLE ( '' ) ;
#215 = EDGE_CURVE ( 'NONE', #22, #217, #55, .T. ) ;
#216 = APPROVAL_ROLE ( '' ) ;
#217 = VERTEX_POINT ( 'NONE', #209 ) ;
#218 = LOCAL_TIME ( 11, 37, 16.00000000000000000, #120 ) ;
#219 = DATE_TIME_ROLE ( 'creation_date' ) ;
#220 = CIRCLE ( 'NONE', #83, 6.250000000000000000 ) ;
#221 = FACE_OUTER_BOUND ( 'NONE', #122, .T. ) ;
#222 = APPROVAL_PERSON_ORGANIZATION ( #116, #132, #56 ) ;
#223 = SECURITY_CLASSIFICATION ( '', '', #118 ) ;
#224 = ORIENTED_EDGE ( 'NONE', *, *, #181, .T. ) ;
#225 = AXIS2_PLACEMENT_3D ( 'NONE', #230, #167, #145 ) ;
#226 = CARTESIAN_POINT ( 'NONE',  ( 9.000000000000000000, 1.102182119232617714E-15, 7.000000000000000000 ) ) ;
#227 = EDGE_CURVE ( 'NONE', #237, #105, #76, .T. ) ;
#228 = DIRECTION ( 'NONE',  ( 0.000000000000000000, 0.000000000000000000, 1.000000000000000000 ) ) ;
#229 = ADVANCED_BREP_SHAPE_REPRESENTATION ( '3e80', ( #58, #129 ), #134 ) ;
#230 = CARTESIAN_POINT ( 'NONE',  ( 0.000000000000000000, 0.000000000000000000, 7.000000000000000000 ) ) ;
#231 = ADVANCED_FACE ( 'NONE', ( #53, #78 ), #234, .T. ) ;
#232 = DIRECTION ( 'NONE',  ( -0.000000000000000000, -0.000000000000000000, -1.000000000000000000 ) ) ;
#233 = CC_DESIGN_PERSON_AND_ORGANIZATION_ASSIGNMENT ( #239, #173, ( #81 ) ) ;
#234 = PLANE ( 'NONE',  #143 ) ;
#235 = MECHANICAL_CONTEXT ( 'NONE', #160, 'mechanical' ) ;
#236 = PRODUCT_DEFINITION_SHAPE ( 'NONE', 'NONE',  #180 ) ;
#237 = VERTEX_POINT ( 'NONE', #91 ) ;
#238 =( NAMED_UNIT ( * ) SI_UNIT ( $, .STERADIAN. ) SOLID_ANGLE_UNIT ( ) );
#239 = PERSON_AND_ORGANIZATION ( #156, #27 ) ;
#240 = AXIS2_PLACEMENT_3D ( 'NONE', #34, #72, #97 ) ;
#241 = ORIENTED_EDGE ( 'NONE', *, *, #227, .F. ) ;
#242 = ORIENTED_EDGE ( 'NONE', *, *, #50, .T. ) ;
#243 = DIRECTION ( 'NONE',  ( 0.000000000000000000, 0.000000000000000000, 1.000000000000000000 ) ) ;
#244 = ORIENTED_EDGE ( 'NONE', *, *, #29, .F. ) ;
#245 = AXIS2_PLACEMENT_3D ( 'NONE', #206, #252, #12 ) ;
#246 = ORIENTED_EDGE ( 'NONE', *, *, #29, .T. ) ;
#247 = DIRECTION ( 'NONE',  ( 0.000000000000000000, 0.000000000000000000, 1.000000000000000000 ) ) ;
#248 = LOCAL_TIME ( 11, 37, 16.00000000000000000, #172 ) ;
#249 = CLOSED_SHELL ( 'NONE', ( #117, #90, #148, #231, #35, #205, #48 ) ) ;
#250 = CYLINDRICAL_SURFACE ( 'NONE', #45, 6.250000000000000000 ) ;
#251 = CARTESIAN_POINT ( 'NONE',  ( -9.000000000000000000, 0.000000000000000000, 7.000000000000000000 ) ) ;
#252 = DIRECTION ( 'NONE',  ( -0.000000000000000000, -0.000000000000000000, -1.000000000000000000 ) ) ;
#253 = DIRECTION ( 'NONE',  ( -0.000000000000000000, -0.000000000000000000, -1.000000000000000000 ) ) ;
#254 = CALENDAR_DATE ( 2023, 13, 2 ) ;
#255 = LOCAL_TIME ( 11, 37, 16.00000000000000000, #196 ) ;
ENDSEC;
END-ISO-10303-21;
