ISO-10303-21;
HEADER;
FILE_DESCRIPTION (( 'STEP AP203' ),
    '1' );
FILE_NAME ('6bf1.STEP',
    '2023-02-13T16:36:51',
    ( '' ),
    ( '' ),
    'SwSTEP 2.0',
    'SolidWorks 2019',
    '' );
FILE_SCHEMA (( 'CONFIG_CONTROL_DESIGN' ));
ENDSEC;

DATA;
#1 = APPROVAL_STATUS ( 'not_yet_approved' ) ;
#2 = DIRECTION ( 'NONE',  ( 0.000000000000000000, 0.000000000000000000, 1.000000000000000000 ) ) ;
#3 = DIRECTION ( 'NONE',  ( 1.000000000000000000, 0.000000000000000000, -0.000000000000000000 ) ) ;
#4 = CLOSED_SHELL ( 'NONE', ( #222, #43, #182, #173, #97, #248, #118 ) ) ;
#5 = EDGE_CURVE ( 'NONE', #189, #227, #95, .T. ) ;
#6 = CYLINDRICAL_SURFACE ( 'NONE', #165, 2.000000000000000000 ) ;
#7 = PRODUCT ( '6bf1', '6bf1', '', ( #166 ) ) ;
#8 = DIRECTION ( 'NONE',  ( -1.000000000000000000, 0.000000000000000000, 0.000000000000000000 ) ) ;
#9 = PRODUCT_DEFINITION_SHAPE ( 'NONE', 'NONE',  #126 ) ;
#10 = AXIS2_PLACEMENT_3D ( 'NONE', #98, #174, #3 ) ;
#11 = EDGE_CURVE ( 'NONE', #128, #189, #82, .T. ) ;
#12 = APPROVAL_STATUS ( 'not_yet_approved' ) ;
#13 = CALENDAR_DATE ( 2023, 13, 2 ) ;
#14 = EDGE_LOOP ( 'NONE', ( #203, #144 ) ) ;
#15 = EDGE_CURVE ( 'NONE', #201, #127, #224, .T. ) ;
#16 = PERSON_AND_ORGANIZATION_ROLE ( 'creator' ) ;
#17 = ORIENTED_EDGE ( 'NONE', *, *, #11, .F. ) ;
#18 = DIRECTION ( 'NONE',  ( -0.000000000000000000, -0.000000000000000000, -1.000000000000000000 ) ) ;
#19 = CALENDAR_DATE ( 2023, 13, 2 ) ;
#20 = CARTESIAN_POINT ( 'NONE',  ( 2.000000000000000000, 2.449293598294706414E-16, 4.000000000000000000 ) ) ;
#21 = ORIENTED_EDGE ( 'NONE', *, *, #93, .F. ) ;
#22 = SHAPE_DEFINITION_REPRESENTATION ( #9, #176 ) ;
#23 = FACE_OUTER_BOUND ( 'NONE', #14, .T. ) ;
#24 = FACE_OUTER_BOUND ( 'NONE', #161, .T. ) ;
#25 = EDGE_CURVE ( 'NONE', #189, #128, #50, .T. ) ;
#26 = APPROVAL_PERSON_ORGANIZATION ( #207, #65, #45 ) ;
#27 = AXIS2_PLACEMENT_3D ( 'NONE', #112, #41, #135 ) ;
#28 = CARTESIAN_POINT ( 'NONE',  ( 0.000000000000000000, 0.000000000000000000, 0.000000000000000000 ) ) ;
#29 = PRODUCT_DEFINITION_FORMATION_WITH_SPECIFIED_SOURCE ( 'LIBOVOLNÝ', '', #7, .NOT_KNOWN. ) ;
#30 = CIRCLE ( 'NONE', #40, 2.000000000000000000 ) ;
#31 = LOCAL_TIME ( 17, 36, 51.00000000000000000, #226 ) ;
#32 = SECURITY_CLASSIFICATION_LEVEL ( 'unclassified' ) ;
#33 = EDGE_CURVE ( 'NONE', #72, #227, #91, .T. ) ;
#34 = DATE_AND_TIME ( #185, #234 ) ;
#35 = AXIS2_PLACEMENT_3D ( 'NONE', #46, #2, #79 ) ;
#36 =( NAMED_UNIT ( * ) SI_UNIT ( $, .STERADIAN. ) SOLID_ANGLE_UNIT ( ) );
#37 = PERSON_AND_ORGANIZATION ( #211, #129 ) ;
#38 = COORDINATED_UNIVERSAL_TIME_OFFSET ( 1, 0, .AHEAD. ) ;
#39 = ORIENTED_EDGE ( 'NONE', *, *, #212, .T. ) ;
#40 = AXIS2_PLACEMENT_3D ( 'NONE', #86, #245, #162 ) ;
#41 = DIRECTION ( 'NONE',  ( -0.000000000000000000, -0.000000000000000000, -1.000000000000000000 ) ) ;
#42 = CARTESIAN_POINT ( 'NONE',  ( 0.000000000000000000, 0.000000000000000000, 4.000000000000000000 ) ) ;
#43 = ADVANCED_FACE ( 'NONE', ( #230 ), #113, .T. ) ;
#44 = DIRECTION ( 'NONE',  ( 0.000000000000000000, 0.000000000000000000, 1.000000000000000000 ) ) ;
#45 = APPROVAL_ROLE ( '' ) ;
#46 = CARTESIAN_POINT ( 'NONE',  ( 0.000000000000000000, 0.000000000000000000, 4.000000000000000000 ) ) ;
#47 = LINE ( 'NONE', #115, #60 ) ;
#48 = CC_DESIGN_PERSON_AND_ORGANIZATION_ASSIGNMENT ( #37, #217, ( #126 ) ) ;
#49 = CARTESIAN_POINT ( 'NONE',  ( 2.000000000000000000, 2.449293598294706414E-16, 250.0000000000000000 ) ) ;
#50 = CIRCLE ( 'NONE', #238, 2.000000000000000000 ) ;
#51 = CC_DESIGN_APPROVAL ( #65, ( #139 ) ) ;
#52 = ORIENTED_EDGE ( 'NONE', *, *, #33, .F. ) ;
#53 = CALENDAR_DATE ( 2023, 13, 2 ) ;
#54 = VECTOR ( 'NONE', #137, 1000.000000000000000 ) ;
#55 = AXIS2_PLACEMENT_3D ( 'NONE', #252, #75, #228 ) ;
#56 = DIRECTION ( 'NONE',  ( 0.000000000000000000, 0.000000000000000000, 1.000000000000000000 ) ) ;
#57 = ORIENTED_EDGE ( 'NONE', *, *, #200, .F. ) ;
#58 = APPROVAL_DATE_TIME ( #192, #65 ) ;
#59 = EDGE_LOOP ( 'NONE', ( #66, #52 ) ) ;
#60 = VECTOR ( 'NONE', #18, 1000.000000000000000 ) ;
#61 = DIRECTION ( 'NONE',  ( 0.000000000000000000, 0.000000000000000000, 1.000000000000000000 ) ) ;
#62 = PERSON_AND_ORGANIZATION_ROLE ( 'classification_officer' ) ;
#63 = DIRECTION ( 'NONE',  ( 1.000000000000000000, 0.000000000000000000, 0.000000000000000000 ) ) ;
#64 = CARTESIAN_POINT ( 'NONE',  ( 2.000000000000000000, 2.449293598294706414E-16, 250.0000000000000000 ) ) ;
#65 = APPROVAL ( #1, 'NEURÈENÝ' ) ;
#66 = ORIENTED_EDGE ( 'NONE', *, *, #255, .F. ) ;
#67 = VERTEX_POINT ( 'NONE', #151 ) ;
#68 = DIRECTION ( 'NONE',  ( -0.000000000000000000, -0.000000000000000000, -1.000000000000000000 ) ) ;
#69 = AXIS2_PLACEMENT_3D ( 'NONE', #254, #61, #210 ) ;
#70 = PRODUCT_RELATED_PRODUCT_CATEGORY ( 'detail', '', ( #7 ) ) ;
#71 = EDGE_LOOP ( 'NONE', ( #219, #109 ) ) ;
#72 = VERTEX_POINT ( 'NONE', #20 ) ;
#73 = AXIS2_PLACEMENT_3D ( 'NONE', #240, #56, #168 ) ;
#74 = ORIENTED_EDGE ( 'NONE', *, *, #5, .T. ) ;
#75 = DIRECTION ( 'NONE',  ( 0.000000000000000000, 0.000000000000000000, 1.000000000000000000 ) ) ;
#76 = CARTESIAN_POINT ( 'NONE',  ( 0.000000000000000000, 0.000000000000000000, 250.0000000000000000 ) ) ;
#77 = DIRECTION ( 'NONE',  ( 0.000000000000000000, 0.000000000000000000, 1.000000000000000000 ) ) ;
#78 = EDGE_CURVE ( 'NONE', #67, #96, #149, .T. ) ;
#79 = DIRECTION ( 'NONE',  ( 1.000000000000000000, 0.000000000000000000, 0.000000000000000000 ) ) ;
#80 = LOCAL_TIME ( 17, 36, 51.00000000000000000, #223 ) ;
#81 = FACE_OUTER_BOUND ( 'NONE', #183, .T. ) ;
#82 = CIRCLE ( 'NONE', #55, 2.000000000000000000 ) ;
#83 = LINE ( 'NONE', #214, #54 ) ;
#84 = CIRCLE ( 'NONE', #100, 4.000000000000000000 ) ;
#85 = DIRECTION ( 'NONE',  ( -1.000000000000000000, 0.000000000000000000, 0.000000000000000000 ) ) ;
#86 = CARTESIAN_POINT ( 'NONE',  ( 0.000000000000000000, 0.000000000000000000, 4.000000000000000000 ) ) ;
#87 = APPROVAL_STATUS ( 'not_yet_approved' ) ;
#88 = COORDINATED_UNIVERSAL_TIME_OFFSET ( 1, 0, .AHEAD. ) ;
#89 = DATE_AND_TIME ( #53, #133 ) ;
#90 = ORIENTED_EDGE ( 'NONE', *, *, #200, .T. ) ;
#91 = CIRCLE ( 'NONE', #141, 2.000000000000000000 ) ;
#92 = ORIENTED_EDGE ( 'NONE', *, *, #25, .F. ) ;
#93 = EDGE_CURVE ( 'NONE', #201, #67, #47, .T. ) ;
#94 = PLANE ( 'NONE',  #104 ) ;
#95 = LINE ( 'NONE', #132, #199 ) ;
#96 = VERTEX_POINT ( 'NONE', #253 ) ;
#97 = ADVANCED_FACE ( 'NONE', ( #23 ), #94, .F. ) ;
#98 = CARTESIAN_POINT ( 'NONE',  ( 0.000000000000000000, 0.000000000000000000, 4.000000000000000000 ) ) ;
#99 = FACE_OUTER_BOUND ( 'NONE', #167, .T. ) ;
#100 = AXIS2_PLACEMENT_3D ( 'NONE', #28, #119, #213 ) ;
#101 = CARTESIAN_POINT ( 'NONE',  ( 0.000000000000000000, 0.000000000000000000, 250.0000000000000000 ) ) ;
#102 = APPROVAL ( #12, 'NEURÈENÝ' ) ;
#103 = CARTESIAN_POINT ( 'NONE',  ( 0.000000000000000000, 0.000000000000000000, 4.000000000000000000 ) ) ;
#104 = AXIS2_PLACEMENT_3D ( 'NONE', #172, #209, #116 ) ;
#105 = CC_DESIGN_SECURITY_CLASSIFICATION ( #139, ( #29 ) ) ;
#106 = CC_DESIGN_PERSON_AND_ORGANIZATION_ASSIGNMENT ( #249, #140, ( #29 ) ) ;
#107 = APPROVAL_DATE_TIME ( #34, #102 ) ;
#108 = APPROVAL_DATE_TIME ( #125, #178 ) ;
#109 = ORIENTED_EDGE ( 'NONE', *, *, #11, .T. ) ;
#110 = CARTESIAN_POINT ( 'NONE',  ( -4.000000000000000000, 0.000000000000000000, 4.000000000000000000 ) ) ;
#111 = PERSON_AND_ORGANIZATION ( #211, #129 ) ;
#112 = CARTESIAN_POINT ( 'NONE',  ( 0.000000000000000000, 0.000000000000000000, 4.000000000000000000 ) ) ;
#113 = CYLINDRICAL_SURFACE ( 'NONE', #27, 4.000000000000000000 ) ;
#114 = CALENDAR_DATE ( 2023, 13, 2 ) ;
#115 = CARTESIAN_POINT ( 'NONE',  ( 4.000000000000000000, 4.898587196589412829E-16, 4.000000000000000000 ) ) ;
#116 = DIRECTION ( 'NONE',  ( 1.000000000000000000, 0.000000000000000000, -0.000000000000000000 ) ) ;
#117 = CC_DESIGN_DATE_AND_TIME_ASSIGNMENT ( #169, #251, ( #139 ) ) ;
#118 = ADVANCED_FACE ( 'NONE', ( #235 ), #170, .T. ) ;
#119 = DIRECTION ( 'NONE',  ( 0.000000000000000000, 0.000000000000000000, 1.000000000000000000 ) ) ;
#120 = CARTESIAN_POINT ( 'NONE',  ( 4.000000000000000000, 4.898587196589412829E-16, 4.000000000000000000 ) ) ;
#121 =( NAMED_UNIT ( * ) PLANE_ANGLE_UNIT ( ) SI_UNIT ( $, .RADIAN. ) );
#122 = VECTOR ( 'NONE', #239, 1000.000000000000000 ) ;
#123 = ORIENTED_EDGE ( 'NONE', *, *, #5, .F. ) ;
#124 = PERSON_AND_ORGANIZATION ( #211, #129 ) ;
#125 = DATE_AND_TIME ( #13, #80 ) ;
#126 = PRODUCT_DEFINITION ( 'NEZNÁMÝ', '', #29, #145 ) ;
#127 = VERTEX_POINT ( 'NONE', #110 ) ;
#128 = VERTEX_POINT ( 'NONE', #64 ) ;
#129 = ORGANIZATION ( 'NEURÈENÝ', 'NEURÈENÝ', '' ) ;
#130 = CARTESIAN_POINT ( 'NONE',  ( 0.000000000000000000, 0.000000000000000000, 250.0000000000000000 ) ) ;
#131 = DIRECTION ( 'NONE',  ( 0.000000000000000000, 0.000000000000000000, 1.000000000000000000 ) ) ;
#132 = CARTESIAN_POINT ( 'NONE',  ( -2.000000000000000000, 0.000000000000000000, 250.0000000000000000 ) ) ;
#133 = LOCAL_TIME ( 17, 36, 51.00000000000000000, #38 ) ;
#134 = DIRECTION ( 'NONE',  ( -0.000000000000000000, -0.000000000000000000, -1.000000000000000000 ) ) ;
#135 = DIRECTION ( 'NONE',  ( -1.000000000000000000, 0.000000000000000000, 0.000000000000000000 ) ) ;
#136 = CYLINDRICAL_SURFACE ( 'NONE', #244, 2.000000000000000000 ) ;
#137 = DIRECTION ( 'NONE',  ( -0.000000000000000000, -0.000000000000000000, -1.000000000000000000 ) ) ;
#138 = MANIFOLD_SOLID_BREP ( 'Pøidat vysunutím3', #4 ) ;
#139 = SECURITY_CLASSIFICATION ( '', '', #32 ) ;
#140 = PERSON_AND_ORGANIZATION_ROLE ( 'design_supplier' ) ;
#141 = AXIS2_PLACEMENT_3D ( 'NONE', #42, #44, #195 ) ;
#142 = APPLICATION_PROTOCOL_DEFINITION ( 'international standard', 'config_control_design', 1994, #154 ) ;
#143 = ORIENTED_EDGE ( 'NONE', *, *, #194, .F. ) ;
#144 = ORIENTED_EDGE ( 'NONE', *, *, #78, .F. ) ;
#145 = DESIGN_CONTEXT ( 'detailed design', #247, 'design' ) ;
#146 = CC_DESIGN_PERSON_AND_ORGANIZATION_ASSIGNMENT ( #111, #62, ( #139 ) ) ;
#147 = ORIENTED_EDGE ( 'NONE', *, *, #93, .T. ) ;
#148 = ORIENTED_EDGE ( 'NONE', *, *, #78, .T. ) ;
#149 = CIRCLE ( 'NONE', #160, 4.000000000000000000 ) ;
#150 = COORDINATED_UNIVERSAL_TIME_OFFSET ( 1, 0, .AHEAD. ) ;
#151 = CARTESIAN_POINT ( 'NONE',  ( 4.000000000000000000, 4.898587196589412829E-16, 0.000000000000000000 ) ) ;
#152 = CC_DESIGN_PERSON_AND_ORGANIZATION_ASSIGNMENT ( #187, #16, ( #29 ) ) ;
#153 = EDGE_LOOP ( 'NONE', ( #143, #92, #74, #171 ) ) ;
#154 = APPLICATION_CONTEXT ( 'configuration controlled 3d designs of mechanical parts and assemblies' ) ;
#155 = FACE_BOUND ( 'NONE', #59, .T. ) ;
#156 = CYLINDRICAL_SURFACE ( 'NONE', #216, 4.000000000000000000 ) ;
#157 = CARTESIAN_POINT ( 'NONE',  ( 0.000000000000000000, 0.000000000000000000, 250.0000000000000000 ) ) ;
#158 = EDGE_CURVE ( 'NONE', #127, #201, #229, .T. ) ;
#159 =( LENGTH_UNIT ( ) NAMED_UNIT ( * ) SI_UNIT ( .MILLI., .METRE. ) );
#160 = AXIS2_PLACEMENT_3D ( 'NONE', #193, #77, #63 ) ;
#161 = EDGE_LOOP ( 'NONE', ( #191, #250 ) ) ;
#162 = DIRECTION ( 'NONE',  ( 1.000000000000000000, 0.000000000000000000, 0.000000000000000000 ) ) ;
#163 = UNCERTAINTY_MEASURE_WITH_UNIT (LENGTH_MEASURE( 1.000000000000000082E-05 ), #159, 'distance_accuracy_value', 'NONE');
#164 = PERSON_AND_ORGANIZATION ( #211, #129 ) ;
#165 = AXIS2_PLACEMENT_3D ( 'NONE', #157, #236, #8 ) ;
#166 = MECHANICAL_CONTEXT ( 'NONE', #154, 'mechanical' ) ;
#167 = EDGE_LOOP ( 'NONE', ( #17, #186, #190, #123 ) ) ;
#168 = DIRECTION ( 'NONE',  ( 1.000000000000000000, 0.000000000000000000, 0.000000000000000000 ) ) ;
#169 = DATE_AND_TIME ( #19, #175 ) ;
#170 = PLANE ( 'NONE',  #196 ) ;
#171 = ORIENTED_EDGE ( 'NONE', *, *, #255, .T. ) ;
#172 = CARTESIAN_POINT ( 'NONE',  ( 0.000000000000000000, 0.000000000000000000, 0.000000000000000000 ) ) ;
#173 = ADVANCED_FACE ( 'NONE', ( #155, #24 ), #233, .T. ) ;
#174 = DIRECTION ( 'NONE',  ( 0.000000000000000000, 0.000000000000000000, 1.000000000000000000 ) ) ;
#175 = LOCAL_TIME ( 17, 36, 51.00000000000000000, #150 ) ;
#176 = ADVANCED_BREP_SHAPE_REPRESENTATION ( '6bf1', ( #138, #73 ), #179 ) ;
#177 = FACE_OUTER_BOUND ( 'NONE', #153, .T. ) ;
#178 = APPROVAL ( #87, 'NEURÈENÝ' ) ;
#179 =( GEOMETRIC_REPRESENTATION_CONTEXT ( 3 ) GLOBAL_UNCERTAINTY_ASSIGNED_CONTEXT ( ( #163 ) ) GLOBAL_UNIT_ASSIGNED_CONTEXT ( ( #159, #121, #36 ) ) REPRESENTATION_CONTEXT ( 'NONE', 'WORKASPACE' ) );
#180 = CARTESIAN_POINT ( 'NONE',  ( -2.000000000000000000, 0.000000000000000000, 4.000000000000000000 ) ) ;
#181 = CARTESIAN_POINT ( 'NONE',  ( -2.000000000000000000, 0.000000000000000000, 250.0000000000000000 ) ) ;
#182 = ADVANCED_FACE ( 'NONE', ( #81 ), #156, .T. ) ;
#183 = EDGE_LOOP ( 'NONE', ( #21, #246, #90, #39 ) ) ;
#184 = DATE_TIME_ROLE ( 'creation_date' ) ;
#185 = CALENDAR_DATE ( 2023, 13, 2 ) ;
#186 = ORIENTED_EDGE ( 'NONE', *, *, #194, .T. ) ;
#187 = PERSON_AND_ORGANIZATION ( #211, #129 ) ;
#188 = EDGE_LOOP ( 'NONE', ( #221, #147, #148, #57 ) ) ;
#189 = VERTEX_POINT ( 'NONE', #181 ) ;
#190 = ORIENTED_EDGE ( 'NONE', *, *, #33, .T. ) ;
#191 = ORIENTED_EDGE ( 'NONE', *, *, #158, .T. ) ;
#192 = DATE_AND_TIME ( #114, #31 ) ;
#193 = CARTESIAN_POINT ( 'NONE',  ( 0.000000000000000000, 0.000000000000000000, 0.000000000000000000 ) ) ;
#194 = EDGE_CURVE ( 'NONE', #128, #72, #198, .T. ) ;
#195 = DIRECTION ( 'NONE',  ( 1.000000000000000000, 0.000000000000000000, 0.000000000000000000 ) ) ;
#196 = AXIS2_PLACEMENT_3D ( 'NONE', #76, #131, #231 ) ;
#197 = DIRECTION ( 'NONE',  ( -0.000000000000000000, -0.000000000000000000, -1.000000000000000000 ) ) ;
#198 = LINE ( 'NONE', #49, #122 ) ;
#199 = VECTOR ( 'NONE', #134, 1000.000000000000000 ) ;
#200 = EDGE_CURVE ( 'NONE', #127, #96, #83, .T. ) ;
#201 = VERTEX_POINT ( 'NONE', #120 ) ;
#202 = APPLICATION_PROTOCOL_DEFINITION ( 'international standard', 'config_control_design', 1994, #247 ) ;
#203 = ORIENTED_EDGE ( 'NONE', *, *, #212, .F. ) ;
#204 = CC_DESIGN_PERSON_AND_ORGANIZATION_ASSIGNMENT ( #124, #225, ( #7 ) ) ;
#205 = DIRECTION ( 'NONE',  ( 1.000000000000000000, 0.000000000000000000, 0.000000000000000000 ) ) ;
#206 = DIRECTION ( 'NONE',  ( 0.000000000000000000, 0.000000000000000000, 1.000000000000000000 ) ) ;
#207 = PERSON_AND_ORGANIZATION ( #211, #129 ) ;
#208 = APPROVAL_PERSON_ORGANIZATION ( #220, #102, #218 ) ;
#209 = DIRECTION ( 'NONE',  ( 0.000000000000000000, 0.000000000000000000, 1.000000000000000000 ) ) ;
#210 = DIRECTION ( 'NONE',  ( 1.000000000000000000, 0.000000000000000000, 0.000000000000000000 ) ) ;
#211 = PERSON ( 'NEURÈENÝ', 'NEURÈENÝ', 'NEURÈENÝ', ('NEURÈENÝ'), ('NEURÈENÝ'), ('NEURÈENÝ') ) ;
#212 = EDGE_CURVE ( 'NONE', #96, #67, #84, .T. ) ;
#213 = DIRECTION ( 'NONE',  ( 1.000000000000000000, 0.000000000000000000, 0.000000000000000000 ) ) ;
#214 = CARTESIAN_POINT ( 'NONE',  ( -4.000000000000000000, 0.000000000000000000, 4.000000000000000000 ) ) ;
#215 = CC_DESIGN_APPROVAL ( #178, ( #29 ) ) ;
#216 = AXIS2_PLACEMENT_3D ( 'NONE', #103, #197, #237 ) ;
#217 = PERSON_AND_ORGANIZATION_ROLE ( 'creator' ) ;
#218 = APPROVAL_ROLE ( '' ) ;
#219 = ORIENTED_EDGE ( 'NONE', *, *, #25, .T. ) ;
#220 = PERSON_AND_ORGANIZATION ( #211, #129 ) ;
#221 = ORIENTED_EDGE ( 'NONE', *, *, #15, .F. ) ;
#222 = ADVANCED_FACE ( 'NONE', ( #99 ), #136, .T. ) ;
#223 = COORDINATED_UNIVERSAL_TIME_OFFSET ( 1, 0, .AHEAD. ) ;
#224 = CIRCLE ( 'NONE', #69, 4.000000000000000000 ) ;
#225 = PERSON_AND_ORGANIZATION_ROLE ( 'design_owner' ) ;
#226 = COORDINATED_UNIVERSAL_TIME_OFFSET ( 1, 0, .AHEAD. ) ;
#227 = VERTEX_POINT ( 'NONE', #180 ) ;
#228 = DIRECTION ( 'NONE',  ( 1.000000000000000000, 0.000000000000000000, 0.000000000000000000 ) ) ;
#229 = CIRCLE ( 'NONE', #35, 4.000000000000000000 ) ;
#230 = FACE_OUTER_BOUND ( 'NONE', #188, .T. ) ;
#231 = DIRECTION ( 'NONE',  ( 1.000000000000000000, 0.000000000000000000, -0.000000000000000000 ) ) ;
#232 = APPROVAL_PERSON_ORGANIZATION ( #164, #178, #242 ) ;
#233 = PLANE ( 'NONE',  #10 ) ;
#234 = LOCAL_TIME ( 17, 36, 51.00000000000000000, #88 ) ;
#235 = FACE_OUTER_BOUND ( 'NONE', #71, .T. ) ;
#236 = DIRECTION ( 'NONE',  ( -0.000000000000000000, -0.000000000000000000, -1.000000000000000000 ) ) ;
#237 = DIRECTION ( 'NONE',  ( -1.000000000000000000, 0.000000000000000000, 0.000000000000000000 ) ) ;
#238 = AXIS2_PLACEMENT_3D ( 'NONE', #130, #206, #205 ) ;
#239 = DIRECTION ( 'NONE',  ( -0.000000000000000000, -0.000000000000000000, -1.000000000000000000 ) ) ;
#240 = CARTESIAN_POINT ( 'NONE',  ( 0.000000000000000000, 0.000000000000000000, 0.000000000000000000 ) ) ;
#241 = CC_DESIGN_DATE_AND_TIME_ASSIGNMENT ( #89, #184, ( #126 ) ) ;
#242 = APPROVAL_ROLE ( '' ) ;
#243 = CC_DESIGN_APPROVAL ( #102, ( #126 ) ) ;
#244 = AXIS2_PLACEMENT_3D ( 'NONE', #101, #68, #85 ) ;
#245 = DIRECTION ( 'NONE',  ( 0.000000000000000000, 0.000000000000000000, 1.000000000000000000 ) ) ;
#246 = ORIENTED_EDGE ( 'NONE', *, *, #158, .F. ) ;
#247 = APPLICATION_CONTEXT ( 'configuration controlled 3d designs of mechanical parts and assemblies' ) ;
#248 = ADVANCED_FACE ( 'NONE', ( #177 ), #6, .T. ) ;
#249 = PERSON_AND_ORGANIZATION ( #211, #129 ) ;
#250 = ORIENTED_EDGE ( 'NONE', *, *, #15, .T. ) ;
#251 = DATE_TIME_ROLE ( 'classification_date' ) ;
#252 = CARTESIAN_POINT ( 'NONE',  ( 0.000000000000000000, 0.000000000000000000, 250.0000000000000000 ) ) ;
#253 = CARTESIAN_POINT ( 'NONE',  ( -4.000000000000000000, 0.000000000000000000, 0.000000000000000000 ) ) ;
#254 = CARTESIAN_POINT ( 'NONE',  ( 0.000000000000000000, 0.000000000000000000, 4.000000000000000000 ) ) ;
#255 = EDGE_CURVE ( 'NONE', #227, #72, #30, .T. ) ;
ENDSEC;
END-ISO-10303-21;
