ISO-10303-21;
HEADER;
FILE_DESCRIPTION (( 'STEP AP203' ),
    '1' );
FILE_NAME ('88db.STEP',
    '2023-02-13T13:46:57',
    ( '' ),
    ( '' ),
    'SwSTEP 2.0',
    'SolidWorks 2019',
    '' );
FILE_SCHEMA (( 'CONFIG_CONTROL_DESIGN' ));
ENDSEC;

DATA;
#1 = CYLINDRICAL_SURFACE ( 'NONE', #158, 7.000000000000000000 ) ;
#2 = PLANE ( 'NONE',  #34 ) ;
#3 = DESIGN_CONTEXT ( 'detailed design', #169, 'design' ) ;
#4 = PERSON_AND_ORGANIZATION ( #145, #124 ) ;
#5 = FACE_OUTER_BOUND ( 'NONE', #133, .T. ) ;
#6 = CARTESIAN_POINT ( 'NONE',  ( 0.000000000000000000, 0.000000000000000000, 6.500000000000000000 ) ) ;
#7 = CARTESIAN_POINT ( 'NONE',  ( 0.000000000000000000, 0.000000000000000000, 6.500000000000000000 ) ) ;
#8 = DATE_TIME_ROLE ( 'classification_date' ) ;
#9 = PERSON_AND_ORGANIZATION ( #145, #124 ) ;
#10 = EDGE_LOOP ( 'NONE', ( #143, #248, #54, #233 ) ) ;
#11 = VERTEX_POINT ( 'NONE', #208 ) ;
#12 = CIRCLE ( 'NONE', #45, 4.250000000000000000 ) ;
#13 = AXIS2_PLACEMENT_3D ( 'NONE', #74, #156, #239 ) ;
#14 = ORIENTED_EDGE ( 'NONE', *, *, #254, .F. ) ;
#15 = CC_DESIGN_DATE_AND_TIME_ASSIGNMENT ( #131, #250, ( #91 ) ) ;
#16 = DIRECTION ( 'NONE',  ( -0.000000000000000000, -0.000000000000000000, -1.000000000000000000 ) ) ;
#17 = AXIS2_PLACEMENT_3D ( 'NONE', #7, #164, #166 ) ;
#18 = DIRECTION ( 'NONE',  ( -1.000000000000000000, 0.000000000000000000, 0.000000000000000000 ) ) ;
#19 = DIRECTION ( 'NONE',  ( 0.000000000000000000, 0.000000000000000000, 1.000000000000000000 ) ) ;
#20 = UNCERTAINTY_MEASURE_WITH_UNIT (LENGTH_MEASURE( 1.000000000000000082E-05 ), #209, 'distance_accuracy_value', 'NONE');
#21 = DIRECTION ( 'NONE',  ( 0.000000000000000000, 0.000000000000000000, 1.000000000000000000 ) ) ;
#22 = PERSON_AND_ORGANIZATION_ROLE ( 'classification_officer' ) ;
#23 = LINE ( 'NONE', #99, #106 ) ;
#24 = CIRCLE ( 'NONE', #198, 7.000000000000000000 ) ;
#25 = PERSON_AND_ORGANIZATION_ROLE ( 'creator' ) ;
#26 = CARTESIAN_POINT ( 'NONE',  ( -4.250000000000000000, 0.000000000000000000, 6.500000000000000000 ) ) ;
#27 = PERSON_AND_ORGANIZATION ( #145, #124 ) ;
#28 = SECURITY_CLASSIFICATION_LEVEL ( 'unclassified' ) ;
#29 =( NAMED_UNIT ( * ) PLANE_ANGLE_UNIT ( ) SI_UNIT ( $, .RADIAN. ) );
#30 = CC_DESIGN_APPROVAL ( #75, ( #216 ) ) ;
#31 = ORIENTED_EDGE ( 'NONE', *, *, #79, .F. ) ;
#32 = CC_DESIGN_PERSON_AND_ORGANIZATION_ASSIGNMENT ( #226, #44, ( #216 ) ) ;
#33 = CARTESIAN_POINT ( 'NONE',  ( 4.250000000000000000, 5.204748896376250699E-16, 6.500000000000000000 ) ) ;
#34 = AXIS2_PLACEMENT_3D ( 'NONE', #217, #36, #134 ) ;
#35 = ORIENTED_EDGE ( 'NONE', *, *, #64, .T. ) ;
#36 = DIRECTION ( 'NONE',  ( 0.000000000000000000, 0.000000000000000000, 1.000000000000000000 ) ) ;
#37 = DIRECTION ( 'NONE',  ( 1.000000000000000000, 0.000000000000000000, 0.000000000000000000 ) ) ;
#38 = CC_DESIGN_SECURITY_CLASSIFICATION ( #46, ( #216 ) ) ;
#39 = FACE_BOUND ( 'NONE', #132, .T. ) ;
#40 = DIRECTION ( 'NONE',  ( 0.000000000000000000, 0.000000000000000000, 1.000000000000000000 ) ) ;
#41 = CARTESIAN_POINT ( 'NONE',  ( 7.000000000000000000, 8.572527594031471218E-16, 6.500000000000000000 ) ) ;
#42 = CIRCLE ( 'NONE', #57, 4.250000000000000000 ) ;
#43 = DIRECTION ( 'NONE',  ( 1.000000000000000000, 0.000000000000000000, 0.000000000000000000 ) ) ;
#44 = PERSON_AND_ORGANIZATION_ROLE ( 'design_supplier' ) ;
#45 = AXIS2_PLACEMENT_3D ( 'NONE', #136, #215, #37 ) ;
#46 = SECURITY_CLASSIFICATION ( '', '', #28 ) ;
#47 = DIRECTION ( 'NONE',  ( 0.000000000000000000, 0.000000000000000000, 1.000000000000000000 ) ) ;
#48 = DATE_AND_TIME ( #142, #253 ) ;
#49 = ORIENTED_EDGE ( 'NONE', *, *, #234, .T. ) ;
#50 = APPLICATION_PROTOCOL_DEFINITION ( 'international standard', 'config_control_design', 1994, #169 ) ;
#51 = EDGE_CURVE ( 'NONE', #227, #211, #246, .T. ) ;
#52 = ORIENTED_EDGE ( 'NONE', *, *, #114, .T. ) ;
#53 = CC_DESIGN_PERSON_AND_ORGANIZATION_ASSIGNMENT ( #9, #147, ( #161 ) ) ;
#54 = ORIENTED_EDGE ( 'NONE', *, *, #228, .T. ) ;
#55 = CARTESIAN_POINT ( 'NONE',  ( 0.000000000000000000, 0.000000000000000000, 6.500000000000000000 ) ) ;
#56 = CYLINDRICAL_SURFACE ( 'NONE', #251, 4.250000000000000000 ) ;
#57 = AXIS2_PLACEMENT_3D ( 'NONE', #221, #47, #121 ) ;
#58 = APPROVAL ( #85, 'NEURÈENÝ' ) ;
#59 = FACE_OUTER_BOUND ( 'NONE', #83, .T. ) ;
#60 = ADVANCED_FACE ( 'NONE', ( #155 ), #178, .T. ) ;
#61 = AXIS2_PLACEMENT_3D ( 'NONE', #62, #141, #43 ) ;
#62 = CARTESIAN_POINT ( 'NONE',  ( 0.000000000000000000, 0.000000000000000000, 0.000000000000000000 ) ) ;
#63 = DIRECTION ( 'NONE',  ( 1.000000000000000000, 0.000000000000000000, 0.000000000000000000 ) ) ;
#64 = EDGE_CURVE ( 'NONE', #231, #11, #93, .T. ) ;
#65 = CARTESIAN_POINT ( 'NONE',  ( 0.000000000000000000, 0.000000000000000000, 0.000000000000000000 ) ) ;
#66 = CALENDAR_DATE ( 2023, 13, 2 ) ;
#67 = VERTEX_POINT ( 'NONE', #94 ) ;
#68 = CIRCLE ( 'NONE', #137, 7.000000000000000000 ) ;
#69 = ORIENTED_EDGE ( 'NONE', *, *, #214, .T. ) ;
#70 = ORIENTED_EDGE ( 'NONE', *, *, #232, .F. ) ;
#71 = CARTESIAN_POINT ( 'NONE',  ( 0.000000000000000000, 0.000000000000000000, 6.500000000000000000 ) ) ;
#72 = ADVANCED_FACE ( 'NONE', ( #59 ), #237, .T. ) ;
#73 = LINE ( 'NONE', #92, #123 ) ;
#74 = CARTESIAN_POINT ( 'NONE',  ( 0.000000000000000000, 0.000000000000000000, 1000.000000000000000 ) ) ;
#75 = APPROVAL ( #206, 'NEURÈENÝ' ) ;
#76 = AXIS2_PLACEMENT_3D ( 'NONE', #210, #19, #218 ) ;
#77 = SHAPE_DEFINITION_REPRESENTATION ( #249, #149 ) ;
#78 = DIRECTION ( 'NONE',  ( 0.000000000000000000, 0.000000000000000000, 1.000000000000000000 ) ) ;
#79 = EDGE_CURVE ( 'NONE', #231, #255, #181, .T. ) ;
#80 = LINE ( 'NONE', #196, #177 ) ;
#81 =( GEOMETRIC_REPRESENTATION_CONTEXT ( 3 ) GLOBAL_UNCERTAINTY_ASSIGNED_CONTEXT ( ( #20 ) ) GLOBAL_UNIT_ASSIGNED_CONTEXT ( ( #209, #29, #112 ) ) REPRESENTATION_CONTEXT ( 'NONE', 'WORKASPACE' ) );
#82 = CARTESIAN_POINT ( 'NONE',  ( -7.000000000000000000, 0.000000000000000000, 6.500000000000000000 ) ) ;
#83 = EDGE_LOOP ( 'NONE', ( #172, #230, #69, #189 ) ) ;
#84 = PERSON_AND_ORGANIZATION ( #145, #124 ) ;
#85 = APPROVAL_STATUS ( 'not_yet_approved' ) ;
#86 = EDGE_LOOP ( 'NONE', ( #52, #153 ) ) ;
#87 = APPROVAL_STATUS ( 'not_yet_approved' ) ;
#88 = EDGE_LOOP ( 'NONE', ( #14, #187 ) ) ;
#89 = CIRCLE ( 'NONE', #17, 4.250000000000000000 ) ;
#90 = ADVANCED_FACE ( 'NONE', ( #243 ), #2, .F. ) ;
#91 = PRODUCT_DEFINITION ( 'NEZNÁMÝ', '', #216, #3 ) ;
#92 = CARTESIAN_POINT ( 'NONE',  ( 7.000000000000000000, 8.572527594031471218E-16, 6.500000000000000000 ) ) ;
#93 = CIRCLE ( 'NONE', #244, 4.250000000000000000 ) ;
#94 = CARTESIAN_POINT ( 'NONE',  ( -7.000000000000000000, 0.000000000000000000, 0.000000000000000000 ) ) ;
#95 = CARTESIAN_POINT ( 'NONE',  ( 0.000000000000000000, 0.000000000000000000, 1000.000000000000000 ) ) ;
#96 = APPROVAL_DATE_TIME ( #102, #75 ) ;
#97 = DIRECTION ( 'NONE',  ( -1.000000000000000000, 0.000000000000000000, 0.000000000000000000 ) ) ;
#98 = PERSON_AND_ORGANIZATION ( #145, #124 ) ;
#99 = CARTESIAN_POINT ( 'NONE',  ( -4.250000000000000000, 0.000000000000000000, 1000.000000000000000 ) ) ;
#100 = DIRECTION ( 'NONE',  ( -0.000000000000000000, -0.000000000000000000, -1.000000000000000000 ) ) ;
#101 = AXIS2_PLACEMENT_3D ( 'NONE', #65, #225, #63 ) ;
#102 = DATE_AND_TIME ( #66, #116 ) ;
#103 = ORIENTED_EDGE ( 'NONE', *, *, #232, .T. ) ;
#104 = PERSON_AND_ORGANIZATION ( #145, #124 ) ;
#105 = ORIENTED_EDGE ( 'NONE', *, *, #154, .T. ) ;
#106 = VECTOR ( 'NONE', #163, 1000.000000000000000 ) ;
#107 = ADVANCED_FACE ( 'NONE', ( #5 ), #56, .T. ) ;
#108 = ORIENTED_EDGE ( 'NONE', *, *, #154, .F. ) ;
#109 = AXIS2_PLACEMENT_3D ( 'NONE', #6, #120, #197 ) ;
#110 = ORIENTED_EDGE ( 'NONE', *, *, #64, .F. ) ;
#111 = DIRECTION ( 'NONE',  ( -0.000000000000000000, -0.000000000000000000, -1.000000000000000000 ) ) ;
#112 =( NAMED_UNIT ( * ) SI_UNIT ( $, .STERADIAN. ) SOLID_ANGLE_UNIT ( ) );
#113 = DIRECTION ( 'NONE',  ( -1.000000000000000000, 0.000000000000000000, 0.000000000000000000 ) ) ;
#114 = EDGE_CURVE ( 'NONE', #211, #227, #68, .T. ) ;
#115 = AXIS2_PLACEMENT_3D ( 'NONE', #135, #118, #97 ) ;
#116 = LOCAL_TIME ( 14, 46, 57.00000000000000000, #173 ) ;
#117 = FACE_OUTER_BOUND ( 'NONE', #148, .T. ) ;
#118 = DIRECTION ( 'NONE',  ( -0.000000000000000000, -0.000000000000000000, -1.000000000000000000 ) ) ;
#119 = PERSON_AND_ORGANIZATION_ROLE ( 'creator' ) ;
#120 = DIRECTION ( 'NONE',  ( 0.000000000000000000, 0.000000000000000000, 1.000000000000000000 ) ) ;
#121 = DIRECTION ( 'NONE',  ( 1.000000000000000000, 0.000000000000000000, 0.000000000000000000 ) ) ;
#122 = EDGE_CURVE ( 'NONE', #227, #235, #73, .T. ) ;
#123 = VECTOR ( 'NONE', #16, 1000.000000000000000 ) ;
#124 = ORGANIZATION ( 'NEURÈENÝ', 'NEURÈENÝ', '' ) ;
#125 = APPROVAL_ROLE ( '' ) ;
#126 = CARTESIAN_POINT ( 'NONE',  ( 0.000000000000000000, 0.000000000000000000, 0.000000000000000000 ) ) ;
#127 = DATE_AND_TIME ( #202, #140 ) ;
#128 = CC_DESIGN_DATE_AND_TIME_ASSIGNMENT ( #48, #8, ( #46 ) ) ;
#129 = COORDINATED_UNIVERSAL_TIME_OFFSET ( 1, 0, .AHEAD. ) ;
#130 = ADVANCED_FACE ( 'NONE', ( #176 ), #1, .T. ) ;
#131 = DATE_AND_TIME ( #144, #192 ) ;
#132 = EDGE_LOOP ( 'NONE', ( #174, #167 ) ) ;
#133 = EDGE_LOOP ( 'NONE', ( #31, #108, #103, #49 ) ) ;
#134 = DIRECTION ( 'NONE',  ( 1.000000000000000000, 0.000000000000000000, -0.000000000000000000 ) ) ;
#135 = CARTESIAN_POINT ( 'NONE',  ( 0.000000000000000000, 0.000000000000000000, 6.500000000000000000 ) ) ;
#136 = CARTESIAN_POINT ( 'NONE',  ( 0.000000000000000000, 0.000000000000000000, 1000.000000000000000 ) ) ;
#137 = AXIS2_PLACEMENT_3D ( 'NONE', #55, #179, #241 ) ;
#138 = CIRCLE ( 'NONE', #61, 7.000000000000000000 ) ;
#139 = PRODUCT_RELATED_PRODUCT_CATEGORY ( 'detail', '', ( #161 ) ) ;
#140 = LOCAL_TIME ( 14, 46, 57.00000000000000000, #180 ) ;
#141 = DIRECTION ( 'NONE',  ( 0.000000000000000000, 0.000000000000000000, 1.000000000000000000 ) ) ;
#142 = CALENDAR_DATE ( 2023, 13, 2 ) ;
#143 = ORIENTED_EDGE ( 'NONE', *, *, #122, .F. ) ;
#144 = CALENDAR_DATE ( 2023, 13, 2 ) ;
#145 = PERSON ( 'NEURÈENÝ', 'NEURÈENÝ', 'NEURÈENÝ', ('NEURÈENÝ'), ('NEURÈENÝ'), ('NEURÈENÝ') ) ;
#146 = CC_DESIGN_PERSON_AND_ORGANIZATION_ASSIGNMENT ( #27, #119, ( #216 ) ) ;
#147 = PERSON_AND_ORGANIZATION_ROLE ( 'design_owner' ) ;
#148 = EDGE_LOOP ( 'NONE', ( #110, #204, #150, #70 ) ) ;
#149 = ADVANCED_BREP_SHAPE_REPRESENTATION ( '88db', ( #207, #101 ), #81 ) ;
#150 = ORIENTED_EDGE ( 'NONE', *, *, #201, .T. ) ;
#151 = APPROVAL_PERSON_ORGANIZATION ( #4, #58, #195 ) ;
#152 = CC_DESIGN_PERSON_AND_ORGANIZATION_ASSIGNMENT ( #104, #22, ( #46 ) ) ;
#153 = ORIENTED_EDGE ( 'NONE', *, *, #51, .T. ) ;
#154 = EDGE_CURVE ( 'NONE', #11, #231, #12, .T. ) ;
#155 = FACE_OUTER_BOUND ( 'NONE', #252, .T. ) ;
#156 = DIRECTION ( 'NONE',  ( -0.000000000000000000, -0.000000000000000000, -1.000000000000000000 ) ) ;
#157 = APPLICATION_PROTOCOL_DEFINITION ( 'international standard', 'config_control_design', 1994, #219 ) ;
#158 = AXIS2_PLACEMENT_3D ( 'NONE', #71, #238, #18 ) ;
#159 = APPROVAL_PERSON_ORGANIZATION ( #98, #242, #125 ) ;
#160 = DIRECTION ( 'NONE',  ( 1.000000000000000000, 0.000000000000000000, -0.000000000000000000 ) ) ;
#161 = PRODUCT ( '88db', '88db', '', ( #229 ) ) ;
#162 = CARTESIAN_POINT ( 'NONE',  ( 4.250000000000000000, 5.204748896376250699E-16, 1000.000000000000000 ) ) ;
#163 = DIRECTION ( 'NONE',  ( -0.000000000000000000, -0.000000000000000000, -1.000000000000000000 ) ) ;
#164 = DIRECTION ( 'NONE',  ( 0.000000000000000000, 0.000000000000000000, 1.000000000000000000 ) ) ;
#165 = VECTOR ( 'NONE', #213, 1000.000000000000000 ) ;
#166 = DIRECTION ( 'NONE',  ( 1.000000000000000000, 0.000000000000000000, 0.000000000000000000 ) ) ;
#167 = ORIENTED_EDGE ( 'NONE', *, *, #201, .F. ) ;
#168 = PERSON_AND_ORGANIZATION ( #145, #124 ) ;
#169 = APPLICATION_CONTEXT ( 'configuration controlled 3d designs of mechanical parts and assemblies' ) ;
#170 = PLANE ( 'NONE',  #109 ) ;
#171 = DATE_AND_TIME ( #220, #236 ) ;
#172 = ORIENTED_EDGE ( 'NONE', *, *, #51, .F. ) ;
#173 = COORDINATED_UNIVERSAL_TIME_OFFSET ( 1, 0, .AHEAD. ) ;
#174 = ORIENTED_EDGE ( 'NONE', *, *, #234, .F. ) ;
#175 = CC_DESIGN_APPROVAL ( #242, ( #91 ) ) ;
#176 = FACE_OUTER_BOUND ( 'NONE', #10, .T. ) ;
#177 = VECTOR ( 'NONE', #100, 1000.000000000000000 ) ;
#178 = PLANE ( 'NONE',  #205 ) ;
#179 = DIRECTION ( 'NONE',  ( 0.000000000000000000, 0.000000000000000000, 1.000000000000000000 ) ) ;
#180 = COORDINATED_UNIVERSAL_TIME_OFFSET ( 1, 0, .AHEAD. ) ;
#181 = LINE ( 'NONE', #162, #165 ) ;
#182 = APPROVAL_ROLE ( '' ) ;
#183 = ADVANCED_FACE ( 'NONE', ( #117 ), #193, .T. ) ;
#184 = CARTESIAN_POINT ( 'NONE',  ( 4.250000000000000000, 5.204748896376250699E-16, 1000.000000000000000 ) ) ;
#185 = CC_DESIGN_APPROVAL ( #58, ( #46 ) ) ;
#186 = COORDINATED_UNIVERSAL_TIME_OFFSET ( 1, 0, .AHEAD. ) ;
#187 = ORIENTED_EDGE ( 'NONE', *, *, #214, .F. ) ;
#188 = ADVANCED_FACE ( 'NONE', ( #39, #223 ), #170, .T. ) ;
#189 = ORIENTED_EDGE ( 'NONE', *, *, #228, .F. ) ;
#190 = CC_DESIGN_PERSON_AND_ORGANIZATION_ASSIGNMENT ( #84, #25, ( #91 ) ) ;
#191 = DIRECTION ( 'NONE',  ( 1.000000000000000000, 0.000000000000000000, 0.000000000000000000 ) ) ;
#192 = LOCAL_TIME ( 14, 46, 57.00000000000000000, #129 ) ;
#193 = CYLINDRICAL_SURFACE ( 'NONE', #13, 4.250000000000000000 ) ;
#194 = CARTESIAN_POINT ( 'NONE',  ( 0.000000000000000000, 0.000000000000000000, 1000.000000000000000 ) ) ;
#195 = APPROVAL_ROLE ( '' ) ;
#196 = CARTESIAN_POINT ( 'NONE',  ( -7.000000000000000000, 0.000000000000000000, 6.500000000000000000 ) ) ;
#197 = DIRECTION ( 'NONE',  ( 1.000000000000000000, 0.000000000000000000, -0.000000000000000000 ) ) ;
#198 = AXIS2_PLACEMENT_3D ( 'NONE', #126, #78, #200 ) ;
#199 = APPROVAL_DATE_TIME ( #127, #242 ) ;
#200 = DIRECTION ( 'NONE',  ( 1.000000000000000000, 0.000000000000000000, 0.000000000000000000 ) ) ;
#201 = EDGE_CURVE ( 'NONE', #255, #224, #42, .T. ) ;
#202 = CALENDAR_DATE ( 2023, 13, 2 ) ;
#203 = APPROVAL_DATE_TIME ( #171, #58 ) ;
#204 = ORIENTED_EDGE ( 'NONE', *, *, #79, .T. ) ;
#205 = AXIS2_PLACEMENT_3D ( 'NONE', #95, #21, #160 ) ;
#206 = APPROVAL_STATUS ( 'not_yet_approved' ) ;
#207 = MANIFOLD_SOLID_BREP ( 'Pøidat vysunutím3', #240 ) ;
#208 = CARTESIAN_POINT ( 'NONE',  ( -4.250000000000000000, 0.000000000000000000, 1000.000000000000000 ) ) ;
#209 =( LENGTH_UNIT ( ) NAMED_UNIT ( * ) SI_UNIT ( .MILLI., .METRE. ) );
#210 = CARTESIAN_POINT ( 'NONE',  ( 0.000000000000000000, 0.000000000000000000, 6.500000000000000000 ) ) ;
#211 = VERTEX_POINT ( 'NONE', #82 ) ;
#212 = CARTESIAN_POINT ( 'NONE',  ( 0.000000000000000000, 0.000000000000000000, 1000.000000000000000 ) ) ;
#213 = DIRECTION ( 'NONE',  ( -0.000000000000000000, -0.000000000000000000, -1.000000000000000000 ) ) ;
#214 = EDGE_CURVE ( 'NONE', #235, #67, #24, .T. ) ;
#215 = DIRECTION ( 'NONE',  ( 0.000000000000000000, 0.000000000000000000, 1.000000000000000000 ) ) ;
#216 = PRODUCT_DEFINITION_FORMATION_WITH_SPECIFIED_SOURCE ( 'LIBOVOLNÝ', '', #161, .NOT_KNOWN. ) ;
#217 = CARTESIAN_POINT ( 'NONE',  ( 0.000000000000000000, 0.000000000000000000, 0.000000000000000000 ) ) ;
#218 = DIRECTION ( 'NONE',  ( 1.000000000000000000, 0.000000000000000000, 0.000000000000000000 ) ) ;
#219 = APPLICATION_CONTEXT ( 'configuration controlled 3d designs of mechanical parts and assemblies' ) ;
#220 = CALENDAR_DATE ( 2023, 13, 2 ) ;
#221 = CARTESIAN_POINT ( 'NONE',  ( 0.000000000000000000, 0.000000000000000000, 6.500000000000000000 ) ) ;
#222 = COORDINATED_UNIVERSAL_TIME_OFFSET ( 1, 0, .AHEAD. ) ;
#223 = FACE_OUTER_BOUND ( 'NONE', #86, .T. ) ;
#224 = VERTEX_POINT ( 'NONE', #26 ) ;
#225 = DIRECTION ( 'NONE',  ( 0.000000000000000000, 0.000000000000000000, 1.000000000000000000 ) ) ;
#226 = PERSON_AND_ORGANIZATION ( #145, #124 ) ;
#227 = VERTEX_POINT ( 'NONE', #41 ) ;
#228 = EDGE_CURVE ( 'NONE', #211, #67, #80, .T. ) ;
#229 = MECHANICAL_CONTEXT ( 'NONE', #219, 'mechanical' ) ;
#230 = ORIENTED_EDGE ( 'NONE', *, *, #122, .T. ) ;
#231 = VERTEX_POINT ( 'NONE', #184 ) ;
#232 = EDGE_CURVE ( 'NONE', #11, #224, #23, .T. ) ;
#233 = ORIENTED_EDGE ( 'NONE', *, *, #254, .T. ) ;
#234 = EDGE_CURVE ( 'NONE', #224, #255, #89, .T. ) ;
#235 = VERTEX_POINT ( 'NONE', #247 ) ;
#236 = LOCAL_TIME ( 14, 46, 57.00000000000000000, #222 ) ;
#237 = CYLINDRICAL_SURFACE ( 'NONE', #115, 7.000000000000000000 ) ;
#238 = DIRECTION ( 'NONE',  ( -0.000000000000000000, -0.000000000000000000, -1.000000000000000000 ) ) ;
#239 = DIRECTION ( 'NONE',  ( -1.000000000000000000, 0.000000000000000000, 0.000000000000000000 ) ) ;
#240 = CLOSED_SHELL ( 'NONE', ( #183, #72, #130, #188, #90, #107, #60 ) ) ;
#241 = DIRECTION ( 'NONE',  ( 1.000000000000000000, 0.000000000000000000, 0.000000000000000000 ) ) ;
#242 = APPROVAL ( #87, 'NEURÈENÝ' ) ;
#243 = FACE_OUTER_BOUND ( 'NONE', #88, .T. ) ;
#244 = AXIS2_PLACEMENT_3D ( 'NONE', #194, #40, #191 ) ;
#245 = APPROVAL_PERSON_ORGANIZATION ( #168, #75, #182 ) ;
#246 = CIRCLE ( 'NONE', #76, 7.000000000000000000 ) ;
#247 = CARTESIAN_POINT ( 'NONE',  ( 7.000000000000000000, 8.572527594031471218E-16, 0.000000000000000000 ) ) ;
#248 = ORIENTED_EDGE ( 'NONE', *, *, #114, .F. ) ;
#249 = PRODUCT_DEFINITION_SHAPE ( 'NONE', 'NONE',  #91 ) ;
#250 = DATE_TIME_ROLE ( 'creation_date' ) ;
#251 = AXIS2_PLACEMENT_3D ( 'NONE', #212, #111, #113 ) ;
#252 = EDGE_LOOP ( 'NONE', ( #105, #35 ) ) ;
#253 = LOCAL_TIME ( 14, 46, 57.00000000000000000, #186 ) ;
#254 = EDGE_CURVE ( 'NONE', #67, #235, #138, .T. ) ;
#255 = VERTEX_POINT ( 'NONE', #33 ) ;
ENDSEC;
END-ISO-10303-21;
