ISO-10303-21;
HEADER;
FILE_DESCRIPTION (( 'STEP AP203' ),
    '1' );
FILE_NAME ('4c62.STEP',
    '2023-02-13T15:45:11',
    ( '' ),
    ( '' ),
    'SwSTEP 2.0',
    'SolidWorks 2019',
    '' );
FILE_SCHEMA (( 'CONFIG_CONTROL_DESIGN' ));
ENDSEC;

DATA;
#1 = AXIS2_PLACEMENT_3D ( 'NONE', #74, #137, #54 ) ;
#2 = FACE_BOUND ( 'NONE', #206, .T. ) ;
#3 = CLOSED_SHELL ( 'NONE', ( #18, #106, #139, #101, #92, #234, #130 ) ) ;
#4 = CARTESIAN_POINT ( 'NONE',  ( 0.000000000000000000, 0.000000000000000000, 5.000000000000000000 ) ) ;
#5 = ORIENTED_EDGE ( 'NONE', *, *, #188, .T. ) ;
#6 = ORIENTED_EDGE ( 'NONE', *, *, #183, .T. ) ;
#7 = APPLICATION_PROTOCOL_DEFINITION ( 'international standard', 'config_control_design', 1994, #34 ) ;
#8 = PERSON_AND_ORGANIZATION ( #56, #81 ) ;
#9 = AXIS2_PLACEMENT_3D ( 'NONE', #184, #65, #145 ) ;
#10 = LOCAL_TIME ( 16, 45, 11.00000000000000000, #176 ) ;
#11 = COORDINATED_UNIVERSAL_TIME_OFFSET ( 1, 0, .AHEAD. ) ;
#12 = LINE ( 'NONE', #117, #93 ) ;
#13 = CC_DESIGN_PERSON_AND_ORGANIZATION_ASSIGNMENT ( #213, #50, ( #147 ) ) ;
#14 = COORDINATED_UNIVERSAL_TIME_OFFSET ( 1, 0, .AHEAD. ) ;
#15 = DATE_TIME_ROLE ( 'classification_date' ) ;
#16 = VERTEX_POINT ( 'NONE', #77 ) ;
#17 = CARTESIAN_POINT ( 'NONE',  ( 0.000000000000000000, 0.000000000000000000, 200.0000000000000000 ) ) ;
#18 = ADVANCED_FACE ( 'NONE', ( #115 ), #76, .T. ) ;
#19 = FACE_OUTER_BOUND ( 'NONE', #61, .T. ) ;
#20 = DIRECTION ( 'NONE',  ( -0.000000000000000000, -0.000000000000000000, -1.000000000000000000 ) ) ;
#21 = ORIENTED_EDGE ( 'NONE', *, *, #45, .F. ) ;
#22 = FACE_OUTER_BOUND ( 'NONE', #215, .T. ) ;
#23 = ORIENTED_EDGE ( 'NONE', *, *, #80, .T. ) ;
#24 = CC_DESIGN_DATE_AND_TIME_ASSIGNMENT ( #246, #136, ( #29 ) ) ;
#25 = AXIS2_PLACEMENT_3D ( 'NONE', #44, #203, #245 ) ;
#26 = ORIENTED_EDGE ( 'NONE', *, *, #85, .T. ) ;
#27 = CYLINDRICAL_SURFACE ( 'NONE', #95, 3.000000000000000444 ) ;
#28 = APPROVAL_STATUS ( 'not_yet_approved' ) ;
#29 = PRODUCT_DEFINITION ( 'NEZNÁMÝ', '', #147, #156 ) ;
#30 = APPROVAL_PERSON_ORGANIZATION ( #99, #133, #118 ) ;
#31 = CALENDAR_DATE ( 2023, 13, 2 ) ;
#32 = PERSON_AND_ORGANIZATION ( #56, #81 ) ;
#33 = DIRECTION ( 'NONE',  ( -0.000000000000000000, -0.000000000000000000, -1.000000000000000000 ) ) ;
#34 = APPLICATION_CONTEXT ( 'configuration controlled 3d designs of mechanical parts and assemblies' ) ;
#35 = CYLINDRICAL_SURFACE ( 'NONE', #72, 6.000000000000000888 ) ;
#36 = LOCAL_TIME ( 16, 45, 11.00000000000000000, #11 ) ;
#37 = CARTESIAN_POINT ( 'NONE',  ( 0.000000000000000000, 0.000000000000000000, 0.000000000000000000 ) ) ;
#38 = DIRECTION ( 'NONE',  ( 0.000000000000000000, 0.000000000000000000, 1.000000000000000000 ) ) ;
#39 = APPROVAL ( #197, 'NEURÈENÝ' ) ;
#40 = CARTESIAN_POINT ( 'NONE',  ( 3.000000000000000444, 3.673940397442060361E-16, 5.000000000000000000 ) ) ;
#41 = EDGE_LOOP ( 'NONE', ( #6, #180 ) ) ;
#42 = CARTESIAN_POINT ( 'NONE',  ( 6.000000000000000888, 7.347880794884120722E-16, 0.000000000000000000 ) ) ;
#43 = ORIENTED_EDGE ( 'NONE', *, *, #80, .F. ) ;
#44 = CARTESIAN_POINT ( 'NONE',  ( 0.000000000000000000, 0.000000000000000000, 0.000000000000000000 ) ) ;
#45 = EDGE_CURVE ( 'NONE', #253, #222, #68, .T. ) ;
#46 = PERSON_AND_ORGANIZATION_ROLE ( 'creator' ) ;
#47 = ORIENTED_EDGE ( 'NONE', *, *, #126, .T. ) ;
#48 = DIRECTION ( 'NONE',  ( 0.000000000000000000, 0.000000000000000000, 1.000000000000000000 ) ) ;
#49 = DIRECTION ( 'NONE',  ( 1.000000000000000000, 0.000000000000000000, 0.000000000000000000 ) ) ;
#50 = PERSON_AND_ORGANIZATION_ROLE ( 'design_supplier' ) ;
#51 = AXIS2_PLACEMENT_3D ( 'NONE', #141, #83, #179 ) ;
#52 = DATE_AND_TIME ( #230, #36 ) ;
#53 = DIRECTION ( 'NONE',  ( 0.000000000000000000, 0.000000000000000000, 1.000000000000000000 ) ) ;
#54 = DIRECTION ( 'NONE',  ( 1.000000000000000000, 0.000000000000000000, 0.000000000000000000 ) ) ;
#55 = EDGE_CURVE ( 'NONE', #210, #164, #114, .T. ) ;
#56 = PERSON ( 'NEURÈENÝ', 'NEURÈENÝ', 'NEURÈENÝ', ('NEURÈENÝ'), ('NEURÈENÝ'), ('NEURÈENÝ') ) ;
#57 = AXIS2_PLACEMENT_3D ( 'NONE', #199, #254, #63 ) ;
#58 = AXIS2_PLACEMENT_3D ( 'NONE', #37, #38, #198 ) ;
#59 = EDGE_CURVE ( 'NONE', #175, #86, #135, .T. ) ;
#60 = FACE_OUTER_BOUND ( 'NONE', #193, .T. ) ;
#61 = EDGE_LOOP ( 'NONE', ( #220, #26 ) ) ;
#62 = LINE ( 'NONE', #237, #66 ) ;
#63 = DIRECTION ( 'NONE',  ( 1.000000000000000000, 0.000000000000000000, -0.000000000000000000 ) ) ;
#64 = ORIENTED_EDGE ( 'NONE', *, *, #59, .T. ) ;
#65 = DIRECTION ( 'NONE',  ( 0.000000000000000000, 0.000000000000000000, 1.000000000000000000 ) ) ;
#66 = VECTOR ( 'NONE', #143, 1000.000000000000000 ) ;
#67 = CARTESIAN_POINT ( 'NONE',  ( -3.000000000000000444, 0.000000000000000000, 5.000000000000000000 ) ) ;
#68 = CIRCLE ( 'NONE', #200, 3.000000000000000444 ) ;
#69 = VECTOR ( 'NONE', #33, 1000.000000000000000 ) ;
#70 = VERTEX_POINT ( 'NONE', #212 ) ;
#71 = CC_DESIGN_PERSON_AND_ORGANIZATION_ASSIGNMENT ( #113, #174, ( #29 ) ) ;
#72 = AXIS2_PLACEMENT_3D ( 'NONE', #217, #201, #120 ) ;
#73 = APPROVAL_ROLE ( '' ) ;
#74 = CARTESIAN_POINT ( 'NONE',  ( 0.000000000000000000, 0.000000000000000000, 5.000000000000000000 ) ) ;
#75 = APPLICATION_CONTEXT ( 'configuration controlled 3d designs of mechanical parts and assemblies' ) ;
#76 = CYLINDRICAL_SURFACE ( 'NONE', #244, 3.000000000000000444 ) ;
#77 = CARTESIAN_POINT ( 'NONE',  ( 6.000000000000000888, 7.347880794884120722E-16, 5.000000000000000000 ) ) ;
#78 = CARTESIAN_POINT ( 'NONE',  ( 0.000000000000000000, 0.000000000000000000, 5.000000000000000000 ) ) ;
#79 = LINE ( 'NONE', #82, #225 ) ;
#80 = EDGE_CURVE ( 'NONE', #16, #175, #12, .T. ) ;
#81 = ORGANIZATION ( 'NEURÈENÝ', 'NEURÈENÝ', '' ) ;
#82 = CARTESIAN_POINT ( 'NONE',  ( -3.000000000000000444, 0.000000000000000000, 200.0000000000000000 ) ) ;
#83 = DIRECTION ( 'NONE',  ( 0.000000000000000000, 0.000000000000000000, 1.000000000000000000 ) ) ;
#84 = ORIENTED_EDGE ( 'NONE', *, *, #126, .F. ) ;
#85 = EDGE_CURVE ( 'NONE', #16, #70, #168, .T. ) ;
#86 = VERTEX_POINT ( 'NONE', #132 ) ;
#87 = EDGE_CURVE ( 'NONE', #70, #86, #214, .T. ) ;
#88 = AXIS2_PLACEMENT_3D ( 'NONE', #227, #155, #228 ) ;
#89 = MECHANICAL_CONTEXT ( 'NONE', #34, 'mechanical' ) ;
#90 = CARTESIAN_POINT ( 'NONE',  ( -3.000000000000000444, 0.000000000000000000, 200.0000000000000000 ) ) ;
#91 = CALENDAR_DATE ( 2023, 13, 2 ) ;
#92 = ADVANCED_FACE ( 'NONE', ( #94 ), #163, .F. ) ;
#93 = VECTOR ( 'NONE', #232, 1000.000000000000000 ) ;
#94 = FACE_OUTER_BOUND ( 'NONE', #100, .T. ) ;
#95 = AXIS2_PLACEMENT_3D ( 'NONE', #186, #125, #166 ) ;
#96 = CARTESIAN_POINT ( 'NONE',  ( -6.000000000000000888, 0.000000000000000000, 5.000000000000000000 ) ) ;
#97 = PRODUCT_DEFINITION_SHAPE ( 'NONE', 'NONE',  #29 ) ;
#98 = UNCERTAINTY_MEASURE_WITH_UNIT (LENGTH_MEASURE( 1.000000000000000082E-05 ), #189, 'distance_accuracy_value', 'NONE');
#99 = PERSON_AND_ORGANIZATION ( #56, #81 ) ;
#100 = EDGE_LOOP ( 'NONE', ( #185, #251 ) ) ;
#101 = ADVANCED_FACE ( 'NONE', ( #2, #19 ), #102, .T. ) ;
#102 = PLANE ( 'NONE',  #51 ) ;
#103 = PRODUCT ( '4c62', '4c62', '', ( #89 ) ) ;
#104 = CIRCLE ( 'NONE', #9, 6.000000000000000888 ) ;
#105 = PLANE ( 'NONE',  #57 ) ;
#106 = ADVANCED_FACE ( 'NONE', ( #22 ), #35, .T. ) ;
#107 = CC_DESIGN_APPROVAL ( #133, ( #29 ) ) ;
#108 = ORIENTED_EDGE ( 'NONE', *, *, #55, .F. ) ;
#109 =( NAMED_UNIT ( * ) SI_UNIT ( $, .STERADIAN. ) SOLID_ANGLE_UNIT ( ) );
#110 = SECURITY_CLASSIFICATION_LEVEL ( 'unclassified' ) ;
#111 = CARTESIAN_POINT ( 'NONE',  ( 0.000000000000000000, 0.000000000000000000, 0.000000000000000000 ) ) ;
#112 = PRODUCT_RELATED_PRODUCT_CATEGORY ( 'detail', '', ( #103 ) ) ;
#113 = PERSON_AND_ORGANIZATION ( #56, #81 ) ;
#114 = CIRCLE ( 'NONE', #88, 3.000000000000000444 ) ;
#115 = FACE_OUTER_BOUND ( 'NONE', #238, .T. ) ;
#116 = COORDINATED_UNIVERSAL_TIME_OFFSET ( 1, 0, .AHEAD. ) ;
#117 = CARTESIAN_POINT ( 'NONE',  ( 6.000000000000000888, 7.347880794884120722E-16, 5.000000000000000000 ) ) ;
#118 = APPROVAL_ROLE ( '' ) ;
#119 = DIRECTION ( 'NONE',  ( 1.000000000000000000, 0.000000000000000000, 0.000000000000000000 ) ) ;
#120 = DIRECTION ( 'NONE',  ( -1.000000000000000000, 0.000000000000000000, 0.000000000000000000 ) ) ;
#121 = DIRECTION ( 'NONE',  ( 0.000000000000000000, 0.000000000000000000, 1.000000000000000000 ) ) ;
#122 = ORIENTED_EDGE ( 'NONE', *, *, #55, .T. ) ;
#123 = DIRECTION ( 'NONE',  ( 0.000000000000000000, 0.000000000000000000, 1.000000000000000000 ) ) ;
#124 = ORIENTED_EDGE ( 'NONE', *, *, #87, .F. ) ;
#125 = DIRECTION ( 'NONE',  ( -0.000000000000000000, -0.000000000000000000, -1.000000000000000000 ) ) ;
#126 = EDGE_CURVE ( 'NONE', #222, #210, #79, .T. ) ;
#127 =( GEOMETRIC_REPRESENTATION_CONTEXT ( 3 ) GLOBAL_UNCERTAINTY_ASSIGNED_CONTEXT ( ( #98 ) ) GLOBAL_UNIT_ASSIGNED_CONTEXT ( ( #189, #146, #109 ) ) REPRESENTATION_CONTEXT ( 'NONE', 'WORKASPACE' ) );
#128 = FACE_OUTER_BOUND ( 'NONE', #144, .T. ) ;
#129 = APPROVAL_ROLE ( '' ) ;
#130 = ADVANCED_FACE ( 'NONE', ( #160 ), #105, .T. ) ;
#131 = APPROVAL_STATUS ( 'not_yet_approved' ) ;
#132 = CARTESIAN_POINT ( 'NONE',  ( -6.000000000000000888, 0.000000000000000000, 0.000000000000000000 ) ) ;
#133 = APPROVAL ( #28, 'NEURÈENÝ' ) ;
#134 = PERSON_AND_ORGANIZATION_ROLE ( 'classification_officer' ) ;
#135 = CIRCLE ( 'NONE', #229, 6.000000000000000888 ) ;
#136 = DATE_TIME_ROLE ( 'creation_date' ) ;
#137 = DIRECTION ( 'NONE',  ( 0.000000000000000000, 0.000000000000000000, 1.000000000000000000 ) ) ;
#138 = ORIENTED_EDGE ( 'NONE', *, *, #172, .F. ) ;
#139 = ADVANCED_FACE ( 'NONE', ( #60 ), #236, .T. ) ;
#140 = AXIS2_PLACEMENT_3D ( 'NONE', #17, #123, #159 ) ;
#141 = CARTESIAN_POINT ( 'NONE',  ( 0.000000000000000000, 0.000000000000000000, 5.000000000000000000 ) ) ;
#142 = ORIENTED_EDGE ( 'NONE', *, *, #183, .F. ) ;
#143 = DIRECTION ( 'NONE',  ( -0.000000000000000000, -0.000000000000000000, -1.000000000000000000 ) ) ;
#144 = EDGE_LOOP ( 'NONE', ( #138, #142, #47, #122 ) ) ;
#145 = DIRECTION ( 'NONE',  ( 1.000000000000000000, 0.000000000000000000, 0.000000000000000000 ) ) ;
#146 =( NAMED_UNIT ( * ) PLANE_ANGLE_UNIT ( ) SI_UNIT ( $, .RADIAN. ) );
#147 = PRODUCT_DEFINITION_FORMATION_WITH_SPECIFIED_SOURCE ( 'LIBOVOLNÝ', '', #103, .NOT_KNOWN. ) ;
#148 = PERSON_AND_ORGANIZATION ( #56, #81 ) ;
#149 = AXIS2_PLACEMENT_3D ( 'NONE', #78, #121, #119 ) ;
#150 = LOCAL_TIME ( 16, 45, 11.00000000000000000, #14 ) ;
#151 = DIRECTION ( 'NONE',  ( -1.000000000000000000, 0.000000000000000000, 0.000000000000000000 ) ) ;
#152 = PERSON_AND_ORGANIZATION ( #56, #81 ) ;
#153 = MANIFOLD_SOLID_BREP ( 'Pøidat vysunutím3', #3 ) ;
#154 = CC_DESIGN_PERSON_AND_ORGANIZATION_ASSIGNMENT ( #152, #134, ( #216 ) ) ;
#155 = DIRECTION ( 'NONE',  ( 0.000000000000000000, 0.000000000000000000, 1.000000000000000000 ) ) ;
#156 = DESIGN_CONTEXT ( 'detailed design', #75, 'design' ) ;
#157 = CARTESIAN_POINT ( 'NONE',  ( 0.000000000000000000, 0.000000000000000000, 200.0000000000000000 ) ) ;
#158 = DIRECTION ( 'NONE',  ( 1.000000000000000000, 0.000000000000000000, 0.000000000000000000 ) ) ;
#159 = DIRECTION ( 'NONE',  ( 1.000000000000000000, 0.000000000000000000, 0.000000000000000000 ) ) ;
#160 = FACE_OUTER_BOUND ( 'NONE', #41, .T. ) ;
#161 = AXIS2_PLACEMENT_3D ( 'NONE', #4, #20, #239 ) ;
#162 = CC_DESIGN_APPROVAL ( #191, ( #147 ) ) ;
#163 = PLANE ( 'NONE',  #58 ) ;
#164 = VERTEX_POINT ( 'NONE', #40 ) ;
#165 = EDGE_CURVE ( 'NONE', #164, #210, #248, .T. ) ;
#166 = DIRECTION ( 'NONE',  ( -1.000000000000000000, 0.000000000000000000, 0.000000000000000000 ) ) ;
#167 = CARTESIAN_POINT ( 'NONE',  ( 0.000000000000000000, 0.000000000000000000, 0.000000000000000000 ) ) ;
#168 = CIRCLE ( 'NONE', #1, 6.000000000000000888 ) ;
#169 = APPROVAL_DATE_TIME ( #224, #191 ) ;
#170 = DIRECTION ( 'NONE',  ( -0.000000000000000000, -0.000000000000000000, -1.000000000000000000 ) ) ;
#171 = PERSON_AND_ORGANIZATION ( #56, #81 ) ;
#172 = EDGE_CURVE ( 'NONE', #253, #164, #62, .T. ) ;
#173 = SHAPE_DEFINITION_REPRESENTATION ( #97, #255 ) ;
#174 = PERSON_AND_ORGANIZATION_ROLE ( 'creator' ) ;
#175 = VERTEX_POINT ( 'NONE', #42 ) ;
#176 = COORDINATED_UNIVERSAL_TIME_OFFSET ( 1, 0, .AHEAD. ) ;
#177 = ORIENTED_EDGE ( 'NONE', *, *, #165, .F. ) ;
#178 = LOCAL_TIME ( 16, 45, 11.00000000000000000, #116 ) ;
#179 = DIRECTION ( 'NONE',  ( 1.000000000000000000, 0.000000000000000000, -0.000000000000000000 ) ) ;
#180 = ORIENTED_EDGE ( 'NONE', *, *, #45, .T. ) ;
#181 = CC_DESIGN_SECURITY_CLASSIFICATION ( #216, ( #147 ) ) ;
#182 = CC_DESIGN_APPROVAL ( #39, ( #216 ) ) ;
#183 = EDGE_CURVE ( 'NONE', #222, #253, #207, .T. ) ;
#184 = CARTESIAN_POINT ( 'NONE',  ( 0.000000000000000000, 0.000000000000000000, 5.000000000000000000 ) ) ;
#185 = ORIENTED_EDGE ( 'NONE', *, *, #188, .F. ) ;
#186 = CARTESIAN_POINT ( 'NONE',  ( 0.000000000000000000, 0.000000000000000000, 200.0000000000000000 ) ) ;
#187 = DIRECTION ( 'NONE',  ( 0.000000000000000000, 0.000000000000000000, 1.000000000000000000 ) ) ;
#188 = EDGE_CURVE ( 'NONE', #86, #175, #226, .T. ) ;
#189 =( LENGTH_UNIT ( ) NAMED_UNIT ( * ) SI_UNIT ( .MILLI., .METRE. ) );
#190 = APPROVAL_DATE_TIME ( #208, #39 ) ;
#191 = APPROVAL ( #131, 'NEURÈENÝ' ) ;
#192 = COORDINATED_UNIVERSAL_TIME_OFFSET ( 1, 0, .AHEAD. ) ;
#193 = EDGE_LOOP ( 'NONE', ( #43, #202, #204, #5 ) ) ;
#194 = AXIS2_PLACEMENT_3D ( 'NONE', #167, #187, #243 ) ;
#195 = DATE_AND_TIME ( #249, #10 ) ;
#196 = APPLICATION_PROTOCOL_DEFINITION ( 'international standard', 'config_control_design', 1994, #75 ) ;
#197 = APPROVAL_STATUS ( 'not_yet_approved' ) ;
#198 = DIRECTION ( 'NONE',  ( 1.000000000000000000, 0.000000000000000000, -0.000000000000000000 ) ) ;
#199 = CARTESIAN_POINT ( 'NONE',  ( 0.000000000000000000, 0.000000000000000000, 200.0000000000000000 ) ) ;
#200 = AXIS2_PLACEMENT_3D ( 'NONE', #231, #48, #158 ) ;
#201 = DIRECTION ( 'NONE',  ( -0.000000000000000000, -0.000000000000000000, -1.000000000000000000 ) ) ;
#202 = ORIENTED_EDGE ( 'NONE', *, *, #219, .F. ) ;
#203 = DIRECTION ( 'NONE',  ( 0.000000000000000000, 0.000000000000000000, 1.000000000000000000 ) ) ;
#204 = ORIENTED_EDGE ( 'NONE', *, *, #87, .T. ) ;
#205 = APPROVAL_PERSON_ORGANIZATION ( #171, #191, #73 ) ;
#206 = EDGE_LOOP ( 'NONE', ( #108, #177 ) ) ;
#207 = CIRCLE ( 'NONE', #140, 3.000000000000000444 ) ;
#208 = DATE_AND_TIME ( #91, #178 ) ;
#209 = PERSON_AND_ORGANIZATION_ROLE ( 'design_owner' ) ;
#210 = VERTEX_POINT ( 'NONE', #67 ) ;
#211 = CALENDAR_DATE ( 2023, 13, 2 ) ;
#212 = CARTESIAN_POINT ( 'NONE',  ( -6.000000000000000888, 0.000000000000000000, 5.000000000000000000 ) ) ;
#213 = PERSON_AND_ORGANIZATION ( #56, #81 ) ;
#214 = LINE ( 'NONE', #96, #69 ) ;
#215 = EDGE_LOOP ( 'NONE', ( #218, #23, #64, #124 ) ) ;
#216 = SECURITY_CLASSIFICATION ( '', '', #110 ) ;
#217 = CARTESIAN_POINT ( 'NONE',  ( 0.000000000000000000, 0.000000000000000000, 5.000000000000000000 ) ) ;
#218 = ORIENTED_EDGE ( 'NONE', *, *, #85, .F. ) ;
#219 = EDGE_CURVE ( 'NONE', #70, #16, #104, .T. ) ;
#220 = ORIENTED_EDGE ( 'NONE', *, *, #219, .T. ) ;
#221 = LOCAL_TIME ( 16, 45, 11.00000000000000000, #192 ) ;
#222 = VERTEX_POINT ( 'NONE', #90 ) ;
#223 = CC_DESIGN_DATE_AND_TIME_ASSIGNMENT ( #52, #15, ( #216 ) ) ;
#224 = DATE_AND_TIME ( #31, #150 ) ;
#225 = VECTOR ( 'NONE', #233, 1000.000000000000000 ) ;
#226 = CIRCLE ( 'NONE', #25, 6.000000000000000888 ) ;
#227 = CARTESIAN_POINT ( 'NONE',  ( 0.000000000000000000, 0.000000000000000000, 5.000000000000000000 ) ) ;
#228 = DIRECTION ( 'NONE',  ( 1.000000000000000000, 0.000000000000000000, 0.000000000000000000 ) ) ;
#229 = AXIS2_PLACEMENT_3D ( 'NONE', #111, #53, #49 ) ;
#230 = CALENDAR_DATE ( 2023, 13, 2 ) ;
#231 = CARTESIAN_POINT ( 'NONE',  ( 0.000000000000000000, 0.000000000000000000, 200.0000000000000000 ) ) ;
#232 = DIRECTION ( 'NONE',  ( -0.000000000000000000, -0.000000000000000000, -1.000000000000000000 ) ) ;
#233 = DIRECTION ( 'NONE',  ( -0.000000000000000000, -0.000000000000000000, -1.000000000000000000 ) ) ;
#234 = ADVANCED_FACE ( 'NONE', ( #128 ), #27, .T. ) ;
#235 = APPROVAL_PERSON_ORGANIZATION ( #32, #39, #129 ) ;
#236 = CYLINDRICAL_SURFACE ( 'NONE', #161, 6.000000000000000888 ) ;
#237 = CARTESIAN_POINT ( 'NONE',  ( 3.000000000000000444, 3.673940397442060361E-16, 200.0000000000000000 ) ) ;
#238 = EDGE_LOOP ( 'NONE', ( #21, #240, #250, #84 ) ) ;
#239 = DIRECTION ( 'NONE',  ( -1.000000000000000000, 0.000000000000000000, 0.000000000000000000 ) ) ;
#240 = ORIENTED_EDGE ( 'NONE', *, *, #172, .T. ) ;
#241 = CARTESIAN_POINT ( 'NONE',  ( 3.000000000000000444, 3.673940397442060361E-16, 200.0000000000000000 ) ) ;
#242 = CC_DESIGN_PERSON_AND_ORGANIZATION_ASSIGNMENT ( #148, #46, ( #147 ) ) ;
#243 = DIRECTION ( 'NONE',  ( 1.000000000000000000, 0.000000000000000000, 0.000000000000000000 ) ) ;
#244 = AXIS2_PLACEMENT_3D ( 'NONE', #157, #170, #151 ) ;
#245 = DIRECTION ( 'NONE',  ( 1.000000000000000000, 0.000000000000000000, 0.000000000000000000 ) ) ;
#246 = DATE_AND_TIME ( #211, #221 ) ;
#247 = CC_DESIGN_PERSON_AND_ORGANIZATION_ASSIGNMENT ( #8, #209, ( #103 ) ) ;
#248 = CIRCLE ( 'NONE', #149, 3.000000000000000444 ) ;
#249 = CALENDAR_DATE ( 2023, 13, 2 ) ;
#250 = ORIENTED_EDGE ( 'NONE', *, *, #165, .T. ) ;
#251 = ORIENTED_EDGE ( 'NONE', *, *, #59, .F. ) ;
#252 = APPROVAL_DATE_TIME ( #195, #133 ) ;
#253 = VERTEX_POINT ( 'NONE', #241 ) ;
#254 = DIRECTION ( 'NONE',  ( 0.000000000000000000, 0.000000000000000000, 1.000000000000000000 ) ) ;
#255 = ADVANCED_BREP_SHAPE_REPRESENTATION ( '4c62', ( #153, #194 ), #127 ) ;
ENDSEC;
END-ISO-10303-21;
