ISO-10303-21;
HEADER;
FILE_DESCRIPTION (( 'STEP AP203' ),
    '1' );
FILE_NAME ('e293.STEP',
    '2023-02-13T16:37:46',
    ( '' ),
    ( '' ),
    'SwSTEP 2.0',
    'SolidWorks 2019',
    '' );
FILE_SCHEMA (( 'CONFIG_CONTROL_DESIGN' ));
ENDSEC;

DATA;
#1 = ORIENTED_EDGE ( 'NONE', *, *, #158, .F. ) ;
#2 = EDGE_CURVE ( 'NONE', #91, #93, #46, .T. ) ;
#3 = VECTOR ( 'NONE', #168, 1000.000000000000000 ) ;
#4 = AXIS2_PLACEMENT_3D ( 'NONE', #67, #61, #125 ) ;
#5 = ORIENTED_EDGE ( 'NONE', *, *, #217, .F. ) ;
#6 = APPROVAL ( #218, 'NEURÈENÝ' ) ;
#7 = CARTESIAN_POINT ( 'NONE',  ( -4.000000000000000000, 0.000000000000000000, 4.000000000000000000 ) ) ;
#8 = DIRECTION ( 'NONE',  ( -0.000000000000000000, -0.000000000000000000, -1.000000000000000000 ) ) ;
#9 = AXIS2_PLACEMENT_3D ( 'NONE', #233, #20, #118 ) ;
#10 = DIRECTION ( 'NONE',  ( -0.000000000000000000, -0.000000000000000000, -1.000000000000000000 ) ) ;
#11 = DIRECTION ( 'NONE',  ( 0.000000000000000000, 0.000000000000000000, 1.000000000000000000 ) ) ;
#12 = LINE ( 'NONE', #14, #3 ) ;
#13 = PERSON_AND_ORGANIZATION ( #17, #226 ) ;
#14 = CARTESIAN_POINT ( 'NONE',  ( -2.000000000000000000, 0.000000000000000000, 100.0000000000000000 ) ) ;
#15 = COORDINATED_UNIVERSAL_TIME_OFFSET ( 1, 0, .AHEAD. ) ;
#16 = ADVANCED_FACE ( 'NONE', ( #69 ), #153, .T. ) ;
#17 = PERSON ( 'NEURÈENÝ', 'NEURÈENÝ', 'NEURÈENÝ', ('NEURÈENÝ'), ('NEURÈENÝ'), ('NEURÈENÝ') ) ;
#18 = ADVANCED_FACE ( 'NONE', ( #101 ), #120, .T. ) ;
#19 = CARTESIAN_POINT ( 'NONE',  ( 0.000000000000000000, 0.000000000000000000, 100.0000000000000000 ) ) ;
#20 = DIRECTION ( 'NONE',  ( 0.000000000000000000, 0.000000000000000000, 1.000000000000000000 ) ) ;
#21 = EDGE_LOOP ( 'NONE', ( #70, #110 ) ) ;
#22 = EDGE_CURVE ( 'NONE', #91, #135, #121, .T. ) ;
#23 = DIRECTION ( 'NONE',  ( 0.000000000000000000, 0.000000000000000000, 1.000000000000000000 ) ) ;
#24 = CC_DESIGN_PERSON_AND_ORGANIZATION_ASSIGNMENT ( #146, #200, ( #248 ) ) ;
#25 = CYLINDRICAL_SURFACE ( 'NONE', #26, 4.000000000000000000 ) ;
#26 = AXIS2_PLACEMENT_3D ( 'NONE', #184, #123, #186 ) ;
#27 = CARTESIAN_POINT ( 'NONE',  ( 0.000000000000000000, 0.000000000000000000, 100.0000000000000000 ) ) ;
#28 = CARTESIAN_POINT ( 'NONE',  ( 2.000000000000000000, 2.449293598294706414E-16, 100.0000000000000000 ) ) ;
#29 = PERSON_AND_ORGANIZATION ( #17, #226 ) ;
#30 = APPROVAL_ROLE ( '' ) ;
#31 = CC_DESIGN_APPROVAL ( #6, ( #76 ) ) ;
#32 = CALENDAR_DATE ( 2023, 13, 2 ) ;
#33 = CALENDAR_DATE ( 2023, 13, 2 ) ;
#34 = FACE_OUTER_BOUND ( 'NONE', #192, .T. ) ;
#35 = APPROVAL ( #173, 'NEURÈENÝ' ) ;
#36 = CIRCLE ( 'NONE', #133, 4.000000000000000000 ) ;
#37 = ORIENTED_EDGE ( 'NONE', *, *, #112, .T. ) ;
#38 = VERTEX_POINT ( 'NONE', #145 ) ;
#39 = APPROVAL ( #85, 'NEURÈENÝ' ) ;
#40 = ORIENTED_EDGE ( 'NONE', *, *, #65, .F. ) ;
#41 = DIRECTION ( 'NONE',  ( 1.000000000000000000, 0.000000000000000000, 0.000000000000000000 ) ) ;
#42 = DIRECTION ( 'NONE',  ( 0.000000000000000000, 0.000000000000000000, 1.000000000000000000 ) ) ;
#43 = CARTESIAN_POINT ( 'NONE',  ( 0.000000000000000000, 0.000000000000000000, 100.0000000000000000 ) ) ;
#44 = LOCAL_TIME ( 17, 37, 46.00000000000000000, #15 ) ;
#45 = ADVANCED_FACE ( 'NONE', ( #60 ), #25, .T. ) ;
#46 = CIRCLE ( 'NONE', #86, 2.000000000000000000 ) ;
#47 = PERSON_AND_ORGANIZATION ( #17, #226 ) ;
#48 = DIRECTION ( 'NONE',  ( 1.000000000000000000, 0.000000000000000000, 0.000000000000000000 ) ) ;
#49 = PRODUCT_DEFINITION_SHAPE ( 'NONE', 'NONE',  #248 ) ;
#50 = DATE_AND_TIME ( #87, #205 ) ;
#51 = PERSON_AND_ORGANIZATION ( #17, #226 ) ;
#52 = DATE_AND_TIME ( #225, #138 ) ;
#53 = CC_DESIGN_PERSON_AND_ORGANIZATION_ASSIGNMENT ( #126, #66, ( #127 ) ) ;
#54 = CIRCLE ( 'NONE', #209, 2.000000000000000000 ) ;
#55 = VERTEX_POINT ( 'NONE', #122 ) ;
#56 = EDGE_CURVE ( 'NONE', #119, #175, #246, .T. ) ;
#57 = ORIENTED_EDGE ( 'NONE', *, *, #22, .F. ) ;
#58 =( NAMED_UNIT ( * ) PLANE_ANGLE_UNIT ( ) SI_UNIT ( $, .RADIAN. ) );
#59 = CARTESIAN_POINT ( 'NONE',  ( 0.000000000000000000, 0.000000000000000000, 4.000000000000000000 ) ) ;
#60 = FACE_OUTER_BOUND ( 'NONE', #207, .T. ) ;
#61 = DIRECTION ( 'NONE',  ( 0.000000000000000000, 0.000000000000000000, 1.000000000000000000 ) ) ;
#62 = DIRECTION ( 'NONE',  ( 0.000000000000000000, 0.000000000000000000, 1.000000000000000000 ) ) ;
#63 = CARTESIAN_POINT ( 'NONE',  ( 4.000000000000000000, 4.898587196589412829E-16, 4.000000000000000000 ) ) ;
#64 = COORDINATED_UNIVERSAL_TIME_OFFSET ( 1, 0, .AHEAD. ) ;
#65 = EDGE_CURVE ( 'NONE', #68, #119, #183, .T. ) ;
#66 = PERSON_AND_ORGANIZATION_ROLE ( 'design_owner' ) ;
#67 = CARTESIAN_POINT ( 'NONE',  ( 0.000000000000000000, 0.000000000000000000, 100.0000000000000000 ) ) ;
#68 = VERTEX_POINT ( 'NONE', #160 ) ;
#69 = FACE_OUTER_BOUND ( 'NONE', #113, .T. ) ;
#70 = ORIENTED_EDGE ( 'NONE', *, *, #56, .F. ) ;
#71 = EDGE_CURVE ( 'NONE', #135, #38, #189, .T. ) ;
#72 = EDGE_LOOP ( 'NONE', ( #116, #206, #211, #194 ) ) ;
#73 = DIRECTION ( 'NONE',  ( 0.000000000000000000, 0.000000000000000000, 1.000000000000000000 ) ) ;
#74 = ADVANCED_FACE ( 'NONE', ( #174 ), #254, .T. ) ;
#75 = DIRECTION ( 'NONE',  ( -0.000000000000000000, -0.000000000000000000, -1.000000000000000000 ) ) ;
#76 = SECURITY_CLASSIFICATION ( '', '', #199 ) ;
#77 = CARTESIAN_POINT ( 'NONE',  ( 2.000000000000000000, 2.449293598294706414E-16, 100.0000000000000000 ) ) ;
#78 = EDGE_CURVE ( 'NONE', #175, #119, #36, .T. ) ;
#79 = DIRECTION ( 'NONE',  ( -1.000000000000000000, 0.000000000000000000, 0.000000000000000000 ) ) ;
#80 = APPROVAL_PERSON_ORGANIZATION ( #83, #35, #109 ) ;
#81 = LINE ( 'NONE', #63, #82 ) ;
#82 = VECTOR ( 'NONE', #103, 1000.000000000000000 ) ;
#83 = PERSON_AND_ORGANIZATION ( #17, #226 ) ;
#84 = COORDINATED_UNIVERSAL_TIME_OFFSET ( 1, 0, .AHEAD. ) ;
#85 = APPROVAL_STATUS ( 'not_yet_approved' ) ;
#86 = AXIS2_PLACEMENT_3D ( 'NONE', #19, #139, #89 ) ;
#87 = CALENDAR_DATE ( 2023, 13, 2 ) ;
#88 = APPROVAL_PERSON_ORGANIZATION ( #13, #39, #30 ) ;
#89 = DIRECTION ( 'NONE',  ( 1.000000000000000000, 0.000000000000000000, 0.000000000000000000 ) ) ;
#90 = CC_DESIGN_DATE_AND_TIME_ASSIGNMENT ( #52, #131, ( #76 ) ) ;
#91 = VERTEX_POINT ( 'NONE', #28 ) ;
#92 = FACE_OUTER_BOUND ( 'NONE', #21, .T. ) ;
#93 = VERTEX_POINT ( 'NONE', #203 ) ;
#94 = AXIS2_PLACEMENT_3D ( 'NONE', #236, #42, #177 ) ;
#95 = CIRCLE ( 'NONE', #111, 4.000000000000000000 ) ;
#96 = ORIENTED_EDGE ( 'NONE', *, *, #97, .T. ) ;
#97 = EDGE_CURVE ( 'NONE', #55, #175, #81, .T. ) ;
#98 = AXIS2_PLACEMENT_3D ( 'NONE', #191, #8, #198 ) ;
#99 = DIRECTION ( 'NONE',  ( 1.000000000000000000, 0.000000000000000000, 0.000000000000000000 ) ) ;
#100 = DIRECTION ( 'NONE',  ( 1.000000000000000000, 0.000000000000000000, 0.000000000000000000 ) ) ;
#101 = FACE_OUTER_BOUND ( 'NONE', #72, .T. ) ;
#102 = EDGE_CURVE ( 'NONE', #38, #135, #54, .T. ) ;
#103 = DIRECTION ( 'NONE',  ( -0.000000000000000000, -0.000000000000000000, -1.000000000000000000 ) ) ;
#104 = CALENDAR_DATE ( 2023, 13, 2 ) ;
#105 = CC_DESIGN_PERSON_AND_ORGANIZATION_ASSIGNMENT ( #29, #167, ( #76 ) ) ;
#106 = DATE_AND_TIME ( #32, #208 ) ;
#107 = DIRECTION ( 'NONE',  ( 1.000000000000000000, 0.000000000000000000, 0.000000000000000000 ) ) ;
#108 = DATE_AND_TIME ( #33, #44 ) ;
#109 = APPROVAL_ROLE ( '' ) ;
#110 = ORIENTED_EDGE ( 'NONE', *, *, #78, .F. ) ;
#111 = AXIS2_PLACEMENT_3D ( 'NONE', #59, #212, #41 ) ;
#112 = EDGE_CURVE ( 'NONE', #93, #38, #12, .T. ) ;
#113 = EDGE_LOOP ( 'NONE', ( #57, #5, #37, #154 ) ) ;
#114 = DIRECTION ( 'NONE',  ( 1.000000000000000000, 0.000000000000000000, 0.000000000000000000 ) ) ;
#115 = PRODUCT_RELATED_PRODUCT_CATEGORY ( 'detail', '', ( #127 ) ) ;
#116 = ORIENTED_EDGE ( 'NONE', *, *, #2, .F. ) ;
#117 = ADVANCED_BREP_SHAPE_REPRESENTATION ( 'e293', ( #178, #242 ), #197 ) ;
#118 = DIRECTION ( 'NONE',  ( 1.000000000000000000, 0.000000000000000000, -0.000000000000000000 ) ) ;
#119 = VERTEX_POINT ( 'NONE', #148 ) ;
#120 = CYLINDRICAL_SURFACE ( 'NONE', #176, 2.000000000000000000 ) ;
#121 = LINE ( 'NONE', #77, #128 ) ;
#122 = CARTESIAN_POINT ( 'NONE',  ( 4.000000000000000000, 4.898587196589412829E-16, 4.000000000000000000 ) ) ;
#123 = DIRECTION ( 'NONE',  ( -0.000000000000000000, -0.000000000000000000, -1.000000000000000000 ) ) ;
#124 = DATE_TIME_ROLE ( 'creation_date' ) ;
#125 = DIRECTION ( 'NONE',  ( 1.000000000000000000, 0.000000000000000000, -0.000000000000000000 ) ) ;
#126 = PERSON_AND_ORGANIZATION ( #17, #226 ) ;
#127 = PRODUCT ( 'e293', 'e293', '', ( #221 ) ) ;
#128 = VECTOR ( 'NONE', #240, 1000.000000000000000 ) ;
#129 = CARTESIAN_POINT ( 'NONE',  ( 0.000000000000000000, 0.000000000000000000, 0.000000000000000000 ) ) ;
#130 = PERSON_AND_ORGANIZATION_ROLE ( 'design_supplier' ) ;
#131 = DATE_TIME_ROLE ( 'classification_date' ) ;
#132 = CC_DESIGN_SECURITY_CLASSIFICATION ( #76, ( #149 ) ) ;
#133 = AXIS2_PLACEMENT_3D ( 'NONE', #187, #165, #140 ) ;
#134 = DIRECTION ( 'NONE',  ( 1.000000000000000000, 0.000000000000000000, 0.000000000000000000 ) ) ;
#135 = VERTEX_POINT ( 'NONE', #170 ) ;
#136 = ORIENTED_EDGE ( 'NONE', *, *, #71, .F. ) ;
#137 = DIRECTION ( 'NONE',  ( -0.000000000000000000, -0.000000000000000000, -1.000000000000000000 ) ) ;
#138 = LOCAL_TIME ( 17, 37, 46.00000000000000000, #245 ) ;
#139 = DIRECTION ( 'NONE',  ( 0.000000000000000000, 0.000000000000000000, 1.000000000000000000 ) ) ;
#140 = DIRECTION ( 'NONE',  ( 1.000000000000000000, 0.000000000000000000, 0.000000000000000000 ) ) ;
#141 = ORIENTED_EDGE ( 'NONE', *, *, #158, .T. ) ;
#142 = APPROVAL_PERSON_ORGANIZATION ( #144, #6, #201 ) ;
#143 = CC_DESIGN_PERSON_AND_ORGANIZATION_ASSIGNMENT ( #51, #219, ( #149 ) ) ;
#144 = PERSON_AND_ORGANIZATION ( #17, #226 ) ;
#145 = CARTESIAN_POINT ( 'NONE',  ( -2.000000000000000000, 0.000000000000000000, 4.000000000000000000 ) ) ;
#146 = PERSON_AND_ORGANIZATION ( #17, #226 ) ;
#147 = APPLICATION_PROTOCOL_DEFINITION ( 'international standard', 'config_control_design', 1994, #247 ) ;
#148 = CARTESIAN_POINT ( 'NONE',  ( -4.000000000000000000, 0.000000000000000000, 0.000000000000000000 ) ) ;
#149 = PRODUCT_DEFINITION_FORMATION_WITH_SPECIFIED_SOURCE ( 'LIBOVOLNÝ', '', #127, .NOT_KNOWN. ) ;
#150 = CC_DESIGN_PERSON_AND_ORGANIZATION_ASSIGNMENT ( #47, #130, ( #149 ) ) ;
#151 = ORIENTED_EDGE ( 'NONE', *, *, #78, .T. ) ;
#152 = UNCERTAINTY_MEASURE_WITH_UNIT (LENGTH_MEASURE( 1.000000000000000082E-05 ), #181, 'distance_accuracy_value', 'NONE');
#153 = CYLINDRICAL_SURFACE ( 'NONE', #98, 2.000000000000000000 ) ;
#154 = ORIENTED_EDGE ( 'NONE', *, *, #102, .T. ) ;
#155 = PLANE ( 'NONE',  #9 ) ;
#156 = CC_DESIGN_APPROVAL ( #35, ( #248 ) ) ;
#157 = ORIENTED_EDGE ( 'NONE', *, *, #97, .F. ) ;
#158 = EDGE_CURVE ( 'NONE', #55, #68, #95, .T. ) ;
#159 = EDGE_LOOP ( 'NONE', ( #235, #182 ) ) ;
#160 = CARTESIAN_POINT ( 'NONE',  ( -4.000000000000000000, 0.000000000000000000, 4.000000000000000000 ) ) ;
#161 = PLANE ( 'NONE',  #94 ) ;
#162 = AXIS2_PLACEMENT_3D ( 'NONE', #193, #23, #99 ) ;
#163 = EDGE_CURVE ( 'NONE', #68, #55, #202, .T. ) ;
#164 =( NAMED_UNIT ( * ) SI_UNIT ( $, .STERADIAN. ) SOLID_ANGLE_UNIT ( ) );
#165 = DIRECTION ( 'NONE',  ( 0.000000000000000000, 0.000000000000000000, 1.000000000000000000 ) ) ;
#166 = CARTESIAN_POINT ( 'NONE',  ( 0.000000000000000000, 0.000000000000000000, 0.000000000000000000 ) ) ;
#167 = PERSON_AND_ORGANIZATION_ROLE ( 'classification_officer' ) ;
#168 = DIRECTION ( 'NONE',  ( -0.000000000000000000, -0.000000000000000000, -1.000000000000000000 ) ) ;
#169 = COORDINATED_UNIVERSAL_TIME_OFFSET ( 1, 0, .AHEAD. ) ;
#170 = CARTESIAN_POINT ( 'NONE',  ( 2.000000000000000000, 2.449293598294706414E-16, 4.000000000000000000 ) ) ;
#171 = ADVANCED_FACE ( 'NONE', ( #34 ), #188, .T. ) ;
#172 = SHAPE_DEFINITION_REPRESENTATION ( #49, #117 ) ;
#173 = APPROVAL_STATUS ( 'not_yet_approved' ) ;
#174 = FACE_OUTER_BOUND ( 'NONE', #159, .T. ) ;
#175 = VERTEX_POINT ( 'NONE', #215 ) ;
#176 = AXIS2_PLACEMENT_3D ( 'NONE', #27, #10, #79 ) ;
#177 = DIRECTION ( 'NONE',  ( 1.000000000000000000, 0.000000000000000000, -0.000000000000000000 ) ) ;
#178 = MANIFOLD_SOLID_BREP ( 'Pøidat vysunutím3', #185 ) ;
#179 = ORIENTED_EDGE ( 'NONE', *, *, #102, .F. ) ;
#180 = ORIENTED_EDGE ( 'NONE', *, *, #65, .T. ) ;
#181 =( LENGTH_UNIT ( ) NAMED_UNIT ( * ) SI_UNIT ( .MILLI., .METRE. ) );
#182 = ORIENTED_EDGE ( 'NONE', *, *, #2, .T. ) ;
#183 = LINE ( 'NONE', #7, #222 ) ;
#184 = CARTESIAN_POINT ( 'NONE',  ( 0.000000000000000000, 0.000000000000000000, 4.000000000000000000 ) ) ;
#185 = CLOSED_SHELL ( 'NONE', ( #18, #45, #171, #229, #252, #16, #74 ) ) ;
#186 = DIRECTION ( 'NONE',  ( -1.000000000000000000, 0.000000000000000000, 0.000000000000000000 ) ) ;
#187 = CARTESIAN_POINT ( 'NONE',  ( 0.000000000000000000, 0.000000000000000000, 0.000000000000000000 ) ) ;
#188 = CYLINDRICAL_SURFACE ( 'NONE', #239, 4.000000000000000000 ) ;
#189 = CIRCLE ( 'NONE', #220, 2.000000000000000000 ) ;
#190 = CC_DESIGN_APPROVAL ( #39, ( #149 ) ) ;
#191 = CARTESIAN_POINT ( 'NONE',  ( 0.000000000000000000, 0.000000000000000000, 100.0000000000000000 ) ) ;
#192 = EDGE_LOOP ( 'NONE', ( #157, #237, #180, #232 ) ) ;
#193 = CARTESIAN_POINT ( 'NONE',  ( 0.000000000000000000, 0.000000000000000000, 4.000000000000000000 ) ) ;
#194 = ORIENTED_EDGE ( 'NONE', *, *, #112, .F. ) ;
#195 = CC_DESIGN_DATE_AND_TIME_ASSIGNMENT ( #108, #124, ( #248 ) ) ;
#196 = DIRECTION ( 'NONE',  ( -1.000000000000000000, 0.000000000000000000, 0.000000000000000000 ) ) ;
#197 =( GEOMETRIC_REPRESENTATION_CONTEXT ( 3 ) GLOBAL_UNCERTAINTY_ASSIGNED_CONTEXT ( ( #152 ) ) GLOBAL_UNIT_ASSIGNED_CONTEXT ( ( #181, #58, #164 ) ) REPRESENTATION_CONTEXT ( 'NONE', 'WORKASPACE' ) );
#198 = DIRECTION ( 'NONE',  ( -1.000000000000000000, 0.000000000000000000, 0.000000000000000000 ) ) ;
#199 = SECURITY_CLASSIFICATION_LEVEL ( 'unclassified' ) ;
#200 = PERSON_AND_ORGANIZATION_ROLE ( 'creator' ) ;
#201 = APPROVAL_ROLE ( '' ) ;
#202 = CIRCLE ( 'NONE', #162, 4.000000000000000000 ) ;
#203 = CARTESIAN_POINT ( 'NONE',  ( -2.000000000000000000, 0.000000000000000000, 100.0000000000000000 ) ) ;
#204 = APPROVAL_DATE_TIME ( #249, #35 ) ;
#205 = LOCAL_TIME ( 17, 37, 46.00000000000000000, #64 ) ;
#206 = ORIENTED_EDGE ( 'NONE', *, *, #22, .T. ) ;
#207 = EDGE_LOOP ( 'NONE', ( #1, #96, #151, #40 ) ) ;
#208 = LOCAL_TIME ( 17, 37, 46.00000000000000000, #84 ) ;
#209 = AXIS2_PLACEMENT_3D ( 'NONE', #241, #62, #107 ) ;
#210 = FACE_BOUND ( 'NONE', #227, .T. ) ;
#211 = ORIENTED_EDGE ( 'NONE', *, *, #71, .T. ) ;
#212 = DIRECTION ( 'NONE',  ( 0.000000000000000000, 0.000000000000000000, 1.000000000000000000 ) ) ;
#213 = FACE_OUTER_BOUND ( 'NONE', #228, .T. ) ;
#214 = LOCAL_TIME ( 17, 37, 46.00000000000000000, #169 ) ;
#215 = CARTESIAN_POINT ( 'NONE',  ( 4.000000000000000000, 4.898587196589412829E-16, 0.000000000000000000 ) ) ;
#216 = APPLICATION_CONTEXT ( 'configuration controlled 3d designs of mechanical parts and assemblies' ) ;
#217 = EDGE_CURVE ( 'NONE', #93, #91, #243, .T. ) ;
#218 = APPROVAL_STATUS ( 'not_yet_approved' ) ;
#219 = PERSON_AND_ORGANIZATION_ROLE ( 'creator' ) ;
#220 = AXIS2_PLACEMENT_3D ( 'NONE', #238, #231, #134 ) ;
#221 = MECHANICAL_CONTEXT ( 'NONE', #247, 'mechanical' ) ;
#222 = VECTOR ( 'NONE', #75, 1000.000000000000000 ) ;
#223 = APPROVAL_DATE_TIME ( #106, #6 ) ;
#224 = APPROVAL_DATE_TIME ( #50, #39 ) ;
#225 = CALENDAR_DATE ( 2023, 13, 2 ) ;
#226 = ORGANIZATION ( 'NEURÈENÝ', 'NEURÈENÝ', '' ) ;
#227 = EDGE_LOOP ( 'NONE', ( #179, #136 ) ) ;
#228 = EDGE_LOOP ( 'NONE', ( #255, #141 ) ) ;
#229 = ADVANCED_FACE ( 'NONE', ( #210, #213 ), #161, .T. ) ;
#230 = CARTESIAN_POINT ( 'NONE',  ( 0.000000000000000000, 0.000000000000000000, 4.000000000000000000 ) ) ;
#231 = DIRECTION ( 'NONE',  ( 0.000000000000000000, 0.000000000000000000, 1.000000000000000000 ) ) ;
#232 = ORIENTED_EDGE ( 'NONE', *, *, #56, .T. ) ;
#233 = CARTESIAN_POINT ( 'NONE',  ( 0.000000000000000000, 0.000000000000000000, 0.000000000000000000 ) ) ;
#234 = AXIS2_PLACEMENT_3D ( 'NONE', #166, #244, #100 ) ;
#235 = ORIENTED_EDGE ( 'NONE', *, *, #217, .T. ) ;
#236 = CARTESIAN_POINT ( 'NONE',  ( 0.000000000000000000, 0.000000000000000000, 4.000000000000000000 ) ) ;
#237 = ORIENTED_EDGE ( 'NONE', *, *, #163, .F. ) ;
#238 = CARTESIAN_POINT ( 'NONE',  ( 0.000000000000000000, 0.000000000000000000, 4.000000000000000000 ) ) ;
#239 = AXIS2_PLACEMENT_3D ( 'NONE', #230, #137, #196 ) ;
#240 = DIRECTION ( 'NONE',  ( -0.000000000000000000, -0.000000000000000000, -1.000000000000000000 ) ) ;
#241 = CARTESIAN_POINT ( 'NONE',  ( 0.000000000000000000, 0.000000000000000000, 4.000000000000000000 ) ) ;
#242 = AXIS2_PLACEMENT_3D ( 'NONE', #129, #11, #48 ) ;
#243 = CIRCLE ( 'NONE', #251, 2.000000000000000000 ) ;
#244 = DIRECTION ( 'NONE',  ( 0.000000000000000000, 0.000000000000000000, 1.000000000000000000 ) ) ;
#245 = COORDINATED_UNIVERSAL_TIME_OFFSET ( 1, 0, .AHEAD. ) ;
#246 = CIRCLE ( 'NONE', #234, 4.000000000000000000 ) ;
#247 = APPLICATION_CONTEXT ( 'configuration controlled 3d designs of mechanical parts and assemblies' ) ;
#248 = PRODUCT_DEFINITION ( 'NEZNÁMÝ', '', #149, #253 ) ;
#249 = DATE_AND_TIME ( #104, #214 ) ;
#250 = APPLICATION_PROTOCOL_DEFINITION ( 'international standard', 'config_control_design', 1994, #216 ) ;
#251 = AXIS2_PLACEMENT_3D ( 'NONE', #43, #73, #114 ) ;
#252 = ADVANCED_FACE ( 'NONE', ( #92 ), #155, .F. ) ;
#253 = DESIGN_CONTEXT ( 'detailed design', #216, 'design' ) ;
#254 = PLANE ( 'NONE',  #4 ) ;
#255 = ORIENTED_EDGE ( 'NONE', *, *, #163, .T. ) ;
ENDSEC;
END-ISO-10303-21;
