ISO-10303-21;
HEADER;
FILE_DESCRIPTION (( 'STEP AP203' ),
    '1' );
FILE_NAME ('c525.STEP',
    '2023-02-13T07:29:04',
    ( '' ),
    ( '' ),
    'SwSTEP 2.0',
    'SolidWorks 2019',
    '' );
FILE_SCHEMA (( 'CONFIG_CONTROL_DESIGN' ));
ENDSEC;

DATA;
#1 = PRODUCT ( 'c525', 'c525', '', ( #39 ) ) ;
#2 = EDGE_CURVE ( 'NONE', #142, #128, #162, .T. ) ;
#3 = APPROVAL ( #73, 'NEURÈENÝ' ) ;
#4 = PERSON ( 'NEURÈENÝ', 'NEURÈENÝ', 'NEURÈENÝ', ('NEURÈENÝ'), ('NEURÈENÝ'), ('NEURÈENÝ') ) ;
#5 = CC_DESIGN_SECURITY_CLASSIFICATION ( #238, ( #181 ) ) ;
#6 = ORIENTED_EDGE ( 'NONE', *, *, #21, .T. ) ;
#7 = ORIENTED_EDGE ( 'NONE', *, *, #215, .T. ) ;
#8 = ORIENTED_EDGE ( 'NONE', *, *, #47, .F. ) ;
#9 = ORIENTED_EDGE ( 'NONE', *, *, #121, .T. ) ;
#10 = EDGE_LOOP ( 'NONE', ( #183, #199, #9, #126 ) ) ;
#11 = DATE_AND_TIME ( #232, #212 ) ;
#12 = CARTESIAN_POINT ( 'NONE',  ( 0.000000000000000000, 0.000000000000000000, 10.00000000000000000 ) ) ;
#13 = EDGE_CURVE ( 'NONE', #145, #128, #124, .T. ) ;
#14 = DIRECTION ( 'NONE',  ( 0.000000000000000000, 0.000000000000000000, 1.000000000000000000 ) ) ;
#15 = COORDINATED_UNIVERSAL_TIME_OFFSET ( 1, 0, .AHEAD. ) ;
#16 = AXIS2_PLACEMENT_3D ( 'NONE', #176, #18, #235 ) ;
#17 = CARTESIAN_POINT ( 'NONE',  ( 20.00000000000000000, 2.449293598294706513E-15, 0.000000000000000000 ) ) ;
#18 = DIRECTION ( 'NONE',  ( -0.000000000000000000, -0.000000000000000000, -1.000000000000000000 ) ) ;
#19 = CC_DESIGN_APPROVAL ( #246, ( #181 ) ) ;
#20 = PRODUCT_DEFINITION_SHAPE ( 'NONE', 'NONE',  #51 ) ;
#21 = EDGE_CURVE ( 'NONE', #220, #142, #161, .T. ) ;
#22 = AXIS2_PLACEMENT_3D ( 'NONE', #223, #144, #88 ) ;
#23 = UNCERTAINTY_MEASURE_WITH_UNIT (LENGTH_MEASURE( 1.000000000000000082E-05 ), #119, 'distance_accuracy_value', 'NONE');
#24 = CIRCLE ( 'NONE', #105, 16.00000000000000000 ) ;
#25 = ORIENTED_EDGE ( 'NONE', *, *, #141, .F. ) ;
#26 = VERTEX_POINT ( 'NONE', #188 ) ;
#27 = LOCAL_TIME ( 8, 29, 4.000000000000000000, #226 ) ;
#28 = ADVANCED_BREP_SHAPE_REPRESENTATION ( 'c525', ( #49, #120 ), #201 ) ;
#29 = EDGE_LOOP ( 'NONE', ( #8, #67 ) ) ;
#30 = FACE_OUTER_BOUND ( 'NONE', #227, .T. ) ;
#31 = ADVANCED_FACE ( 'NONE', ( #221 ), #203, .T. ) ;
#32 = DIRECTION ( 'NONE',  ( 1.000000000000000000, 0.000000000000000000, 0.000000000000000000 ) ) ;
#33 = DIRECTION ( 'NONE',  ( -0.000000000000000000, -0.000000000000000000, -1.000000000000000000 ) ) ;
#34 = CC_DESIGN_PERSON_AND_ORGANIZATION_ASSIGNMENT ( #114, #230, ( #181 ) ) ;
#35 = COORDINATED_UNIVERSAL_TIME_OFFSET ( 1, 0, .AHEAD. ) ;
#36 = CARTESIAN_POINT ( 'NONE',  ( -16.00000000000000000, 0.000000000000000000, 10.00000000000000000 ) ) ;
#37 = DATE_AND_TIME ( #195, #78 ) ;
#38 = LINE ( 'NONE', #115, #66 ) ;
#39 = MECHANICAL_CONTEXT ( 'NONE', #134, 'mechanical' ) ;
#40 = CARTESIAN_POINT ( 'NONE',  ( -20.00000000000000000, 0.000000000000000000, 0.000000000000000000 ) ) ;
#41 = DATE_AND_TIME ( #174, #93 ) ;
#42 = CARTESIAN_POINT ( 'NONE',  ( 16.00000000000000000, 1.959434878635765131E-15, 500.0000000000000000 ) ) ;
#43 = VECTOR ( 'NONE', #163, 1000.000000000000000 ) ;
#44 = DIRECTION ( 'NONE',  ( -0.000000000000000000, -0.000000000000000000, -1.000000000000000000 ) ) ;
#45 = APPLICATION_PROTOCOL_DEFINITION ( 'international standard', 'config_control_design', 1994, #134 ) ;
#46 = ORIENTED_EDGE ( 'NONE', *, *, #61, .F. ) ;
#47 = EDGE_CURVE ( 'NONE', #143, #85, #214, .T. ) ;
#48 = ORIENTED_EDGE ( 'NONE', *, *, #141, .T. ) ;
#49 = MANIFOLD_SOLID_BREP ( 'Pøidat vysunutím3', #173 ) ;
#50 = FACE_BOUND ( 'NONE', #54, .T. ) ;
#51 = PRODUCT_DEFINITION ( 'NEZNÁMÝ', '', #181, #218 ) ;
#52 = DIRECTION ( 'NONE',  ( 1.000000000000000000, 0.000000000000000000, -0.000000000000000000 ) ) ;
#53 = DATE_TIME_ROLE ( 'classification_date' ) ;
#54 = EDGE_LOOP ( 'NONE', ( #225, #25 ) ) ;
#55 = DATE_AND_TIME ( #253, #27 ) ;
#56 = DIRECTION ( 'NONE',  ( 1.000000000000000000, 0.000000000000000000, 0.000000000000000000 ) ) ;
#57 = APPROVAL_STATUS ( 'not_yet_approved' ) ;
#58 =( NAMED_UNIT ( * ) PLANE_ANGLE_UNIT ( ) SI_UNIT ( $, .RADIAN. ) );
#59 = PERSON_AND_ORGANIZATION ( #4, #160 ) ;
#60 = FACE_OUTER_BOUND ( 'NONE', #108, .T. ) ;
#61 = EDGE_CURVE ( 'NONE', #68, #26, #149, .T. ) ;
#62 = EDGE_CURVE ( 'NONE', #85, #143, #138, .T. ) ;
#63 = CC_DESIGN_DATE_AND_TIME_ASSIGNMENT ( #112, #53, ( #238 ) ) ;
#64 = ADVANCED_FACE ( 'NONE', ( #50, #30 ), #107, .T. ) ;
#65 = ADVANCED_FACE ( 'NONE', ( #118 ), #193, .F. ) ;
#66 = VECTOR ( 'NONE', #233, 1000.000000000000000 ) ;
#67 = ORIENTED_EDGE ( 'NONE', *, *, #62, .F. ) ;
#68 = VERTEX_POINT ( 'NONE', #190 ) ;
#69 = EDGE_LOOP ( 'NONE', ( #168, #87, #6, #127 ) ) ;
#70 = ORIENTED_EDGE ( 'NONE', *, *, #240, .T. ) ;
#71 = DIRECTION ( 'NONE',  ( 1.000000000000000000, 0.000000000000000000, 0.000000000000000000 ) ) ;
#72 = PERSON_AND_ORGANIZATION_ROLE ( 'design_supplier' ) ;
#73 = APPROVAL_STATUS ( 'not_yet_approved' ) ;
#74 = APPROVAL_ROLE ( '' ) ;
#75 = FACE_OUTER_BOUND ( 'NONE', #243, .T. ) ;
#76 = PERSON_AND_ORGANIZATION ( #4, #160 ) ;
#77 = CARTESIAN_POINT ( 'NONE',  ( -16.00000000000000000, 0.000000000000000000, 500.0000000000000000 ) ) ;
#78 = LOCAL_TIME ( 8, 29, 4.000000000000000000, #15 ) ;
#79 = ADVANCED_FACE ( 'NONE', ( #75 ), #175, .T. ) ;
#80 = DIRECTION ( 'NONE',  ( 0.000000000000000000, 0.000000000000000000, 1.000000000000000000 ) ) ;
#81 = ORIENTED_EDGE ( 'NONE', *, *, #62, .T. ) ;
#82 = CIRCLE ( 'NONE', #182, 20.00000000000000000 ) ;
#83 = CARTESIAN_POINT ( 'NONE',  ( 16.00000000000000000, 1.959434878635765131E-15, 500.0000000000000000 ) ) ;
#84 = AXIS2_PLACEMENT_3D ( 'NONE', #153, #131, #197 ) ;
#85 = VERTEX_POINT ( 'NONE', #17 ) ;
#86 = DIRECTION ( 'NONE',  ( 0.000000000000000000, 0.000000000000000000, 1.000000000000000000 ) ) ;
#87 = ORIENTED_EDGE ( 'NONE', *, *, #240, .F. ) ;
#88 = DIRECTION ( 'NONE',  ( 1.000000000000000000, 0.000000000000000000, 0.000000000000000000 ) ) ;
#89 = APPROVAL_ROLE ( '' ) ;
#90 = DIRECTION ( 'NONE',  ( 0.000000000000000000, 0.000000000000000000, 1.000000000000000000 ) ) ;
#91 = PERSON_AND_ORGANIZATION ( #4, #160 ) ;
#92 = APPLICATION_CONTEXT ( 'configuration controlled 3d designs of mechanical parts and assemblies' ) ;
#93 = LOCAL_TIME ( 8, 29, 4.000000000000000000, #35 ) ;
#94 = CC_DESIGN_PERSON_AND_ORGANIZATION_ASSIGNMENT ( #208, #95, ( #1 ) ) ;
#95 = PERSON_AND_ORGANIZATION_ROLE ( 'design_owner' ) ;
#96 = DIRECTION ( 'NONE',  ( -1.000000000000000000, 0.000000000000000000, 0.000000000000000000 ) ) ;
#97 = CARTESIAN_POINT ( 'NONE',  ( 0.000000000000000000, 0.000000000000000000, 500.0000000000000000 ) ) ;
#98 = APPROVAL_PERSON_ORGANIZATION ( #252, #246, #74 ) ;
#99 = AXIS2_PLACEMENT_3D ( 'NONE', #103, #241, #244 ) ;
#100 = AXIS2_PLACEMENT_3D ( 'NONE', #191, #44, #229 ) ;
#101 = AXIS2_PLACEMENT_3D ( 'NONE', #111, #200, #147 ) ;
#102 = EDGE_CURVE ( 'NONE', #145, #220, #184, .T. ) ;
#103 = CARTESIAN_POINT ( 'NONE',  ( 0.000000000000000000, 0.000000000000000000, 10.00000000000000000 ) ) ;
#104 = ADVANCED_FACE ( 'NONE', ( #207 ), #156, .T. ) ;
#105 = AXIS2_PLACEMENT_3D ( 'NONE', #216, #14, #139 ) ;
#106 = ORIENTED_EDGE ( 'NONE', *, *, #102, .F. ) ;
#107 = PLANE ( 'NONE',  #236 ) ;
#108 = EDGE_LOOP ( 'NONE', ( #106, #180, #48, #123 ) ) ;
#109 = CC_DESIGN_APPROVAL ( #187, ( #238 ) ) ;
#110 = APPROVAL_DATE_TIME ( #55, #246 ) ;
#111 = CARTESIAN_POINT ( 'NONE',  ( 0.000000000000000000, 0.000000000000000000, 500.0000000000000000 ) ) ;
#112 = DATE_AND_TIME ( #210, #177 ) ;
#113 = CARTESIAN_POINT ( 'NONE',  ( 16.00000000000000000, 1.959434878635765131E-15, 10.00000000000000000 ) ) ;
#114 = PERSON_AND_ORGANIZATION ( #4, #160 ) ;
#115 = CARTESIAN_POINT ( 'NONE',  ( -20.00000000000000000, 0.000000000000000000, 10.00000000000000000 ) ) ;
#116 = PERSON_AND_ORGANIZATION_ROLE ( 'classification_officer' ) ;
#117 = CARTESIAN_POINT ( 'NONE',  ( 20.00000000000000000, 2.449293598294706513E-15, 10.00000000000000000 ) ) ;
#118 = FACE_OUTER_BOUND ( 'NONE', #29, .T. ) ;
#119 =( LENGTH_UNIT ( ) NAMED_UNIT ( * ) SI_UNIT ( .MILLI., .METRE. ) );
#120 = AXIS2_PLACEMENT_3D ( 'NONE', #217, #140, #206 ) ;
#121 = EDGE_CURVE ( 'NONE', #26, #143, #38, .T. ) ;
#122 = AXIS2_PLACEMENT_3D ( 'NONE', #133, #211, #137 ) ;
#123 = ORIENTED_EDGE ( 'NONE', *, *, #21, .F. ) ;
#124 = LINE ( 'NONE', #83, #43 ) ;
#125 = VECTOR ( 'NONE', #172, 1000.000000000000000 ) ;
#126 = ORIENTED_EDGE ( 'NONE', *, *, #47, .T. ) ;
#127 = ORIENTED_EDGE ( 'NONE', *, *, #2, .T. ) ;
#128 = VERTEX_POINT ( 'NONE', #113 ) ;
#129 = APPROVAL_PERSON_ORGANIZATION ( #247, #187, #170 ) ;
#130 = SECURITY_CLASSIFICATION_LEVEL ( 'unclassified' ) ;
#131 = DIRECTION ( 'NONE',  ( 0.000000000000000000, 0.000000000000000000, 1.000000000000000000 ) ) ;
#132 = APPROVAL_DATE_TIME ( #41, #3 ) ;
#133 = CARTESIAN_POINT ( 'NONE',  ( 0.000000000000000000, 0.000000000000000000, 0.000000000000000000 ) ) ;
#134 = APPLICATION_CONTEXT ( 'configuration controlled 3d designs of mechanical parts and assemblies' ) ;
#135 = COORDINATED_UNIVERSAL_TIME_OFFSET ( 1, 0, .AHEAD. ) ;
#136 = CARTESIAN_POINT ( 'NONE',  ( 0.000000000000000000, 0.000000000000000000, 10.00000000000000000 ) ) ;
#137 = DIRECTION ( 'NONE',  ( 1.000000000000000000, 0.000000000000000000, -0.000000000000000000 ) ) ;
#138 = CIRCLE ( 'NONE', #198, 20.00000000000000000 ) ;
#139 = DIRECTION ( 'NONE',  ( 1.000000000000000000, 0.000000000000000000, 0.000000000000000000 ) ) ;
#140 = DIRECTION ( 'NONE',  ( 0.000000000000000000, 0.000000000000000000, 1.000000000000000000 ) ) ;
#141 = EDGE_CURVE ( 'NONE', #128, #142, #158, .T. ) ;
#142 = VERTEX_POINT ( 'NONE', #36 ) ;
#143 = VERTEX_POINT ( 'NONE', #40 ) ;
#144 = DIRECTION ( 'NONE',  ( 0.000000000000000000, 0.000000000000000000, 1.000000000000000000 ) ) ;
#145 = VERTEX_POINT ( 'NONE', #42 ) ;
#146 = PERSON_AND_ORGANIZATION ( #4, #160 ) ;
#147 = DIRECTION ( 'NONE',  ( -1.000000000000000000, 0.000000000000000000, 0.000000000000000000 ) ) ;
#148 = LINE ( 'NONE', #117, #125 ) ;
#149 = CIRCLE ( 'NONE', #245, 20.00000000000000000 ) ;
#150 = DATE_TIME_ROLE ( 'creation_date' ) ;
#151 = DIRECTION ( 'NONE',  ( 1.000000000000000000, 0.000000000000000000, 0.000000000000000000 ) ) ;
#152 = SHAPE_DEFINITION_REPRESENTATION ( #20, #28 ) ;
#153 = CARTESIAN_POINT ( 'NONE',  ( 0.000000000000000000, 0.000000000000000000, 500.0000000000000000 ) ) ;
#154 = CC_DESIGN_APPROVAL ( #3, ( #51 ) ) ;
#155 = AXIS2_PLACEMENT_3D ( 'NONE', #213, #80, #56 ) ;
#156 = CYLINDRICAL_SURFACE ( 'NONE', #16, 20.00000000000000000 ) ;
#157 = EDGE_CURVE ( 'NONE', #26, #68, #82, .T. ) ;
#158 = CIRCLE ( 'NONE', #202, 16.00000000000000000 ) ;
#159 = ORIENTED_EDGE ( 'NONE', *, *, #157, .T. ) ;
#160 = ORGANIZATION ( 'NEURÈENÝ', 'NEURÈENÝ', '' ) ;
#161 = LINE ( 'NONE', #242, #179 ) ;
#162 = CIRCLE ( 'NONE', #99, 16.00000000000000000 ) ;
#163 = DIRECTION ( 'NONE',  ( -0.000000000000000000, -0.000000000000000000, -1.000000000000000000 ) ) ;
#164 = PRODUCT_RELATED_PRODUCT_CATEGORY ( 'detail', '', ( #1 ) ) ;
#165 = CC_DESIGN_PERSON_AND_ORGANIZATION_ASSIGNMENT ( #76, #224, ( #51 ) ) ;
#166 = DIRECTION ( 'NONE',  ( 0.000000000000000000, 0.000000000000000000, 1.000000000000000000 ) ) ;
#167 = AXIS2_PLACEMENT_3D ( 'NONE', #97, #178, #96 ) ;
#168 = ORIENTED_EDGE ( 'NONE', *, *, #13, .F. ) ;
#169 = CARTESIAN_POINT ( 'NONE',  ( 0.000000000000000000, 0.000000000000000000, 0.000000000000000000 ) ) ;
#170 = APPROVAL_ROLE ( '' ) ;
#171 = APPROVAL_PERSON_ORGANIZATION ( #146, #3, #89 ) ;
#172 = DIRECTION ( 'NONE',  ( -0.000000000000000000, -0.000000000000000000, -1.000000000000000000 ) ) ;
#173 = CLOSED_SHELL ( 'NONE', ( #237, #219, #104, #64, #65, #31, #79 ) ) ;
#174 = CALENDAR_DATE ( 2023, 13, 2 ) ;
#175 = PLANE ( 'NONE',  #84 ) ;
#176 = CARTESIAN_POINT ( 'NONE',  ( 0.000000000000000000, 0.000000000000000000, 10.00000000000000000 ) ) ;
#177 = LOCAL_TIME ( 8, 29, 4.000000000000000000, #135 ) ;
#178 = DIRECTION ( 'NONE',  ( -0.000000000000000000, -0.000000000000000000, -1.000000000000000000 ) ) ;
#179 = VECTOR ( 'NONE', #33, 1000.000000000000000 ) ;
#180 = ORIENTED_EDGE ( 'NONE', *, *, #13, .T. ) ;
#181 = PRODUCT_DEFINITION_FORMATION_WITH_SPECIFIED_SOURCE ( 'LIBOVOLNÝ', '', #1, .NOT_KNOWN. ) ;
#182 = AXIS2_PLACEMENT_3D ( 'NONE', #12, #90, #151 ) ;
#183 = ORIENTED_EDGE ( 'NONE', *, *, #215, .F. ) ;
#184 = CIRCLE ( 'NONE', #155, 16.00000000000000000 ) ;
#185 = CARTESIAN_POINT ( 'NONE',  ( 0.000000000000000000, 0.000000000000000000, 10.00000000000000000 ) ) ;
#186 = ORIENTED_EDGE ( 'NONE', *, *, #61, .T. ) ;
#187 = APPROVAL ( #192, 'NEURÈENÝ' ) ;
#188 = CARTESIAN_POINT ( 'NONE',  ( -20.00000000000000000, 0.000000000000000000, 10.00000000000000000 ) ) ;
#189 = COORDINATED_UNIVERSAL_TIME_OFFSET ( 1, 0, .AHEAD. ) ;
#190 = CARTESIAN_POINT ( 'NONE',  ( 20.00000000000000000, 2.449293598294706513E-15, 10.00000000000000000 ) ) ;
#191 = CARTESIAN_POINT ( 'NONE',  ( 0.000000000000000000, 0.000000000000000000, 10.00000000000000000 ) ) ;
#192 = APPROVAL_STATUS ( 'not_yet_approved' ) ;
#193 = PLANE ( 'NONE',  #122 ) ;
#194 = CC_DESIGN_DATE_AND_TIME_ASSIGNMENT ( #37, #150, ( #51 ) ) ;
#195 = CALENDAR_DATE ( 2023, 13, 2 ) ;
#196 = DIRECTION ( 'NONE',  ( 0.000000000000000000, 0.000000000000000000, 1.000000000000000000 ) ) ;
#197 = DIRECTION ( 'NONE',  ( 1.000000000000000000, 0.000000000000000000, -0.000000000000000000 ) ) ;
#198 = AXIS2_PLACEMENT_3D ( 'NONE', #169, #222, #71 ) ;
#199 = ORIENTED_EDGE ( 'NONE', *, *, #157, .F. ) ;
#200 = DIRECTION ( 'NONE',  ( -0.000000000000000000, -0.000000000000000000, -1.000000000000000000 ) ) ;
#201 =( GEOMETRIC_REPRESENTATION_CONTEXT ( 3 ) GLOBAL_UNCERTAINTY_ASSIGNED_CONTEXT ( ( #23 ) ) GLOBAL_UNIT_ASSIGNED_CONTEXT ( ( #119, #58, #231 ) ) REPRESENTATION_CONTEXT ( 'NONE', 'WORKASPACE' ) );
#202 = AXIS2_PLACEMENT_3D ( 'NONE', #136, #196, #254 ) ;
#203 = CYLINDRICAL_SURFACE ( 'NONE', #101, 16.00000000000000000 ) ;
#204 = ORIENTED_EDGE ( 'NONE', *, *, #102, .T. ) ;
#205 = EDGE_LOOP ( 'NONE', ( #46, #7, #81, #255 ) ) ;
#206 = DIRECTION ( 'NONE',  ( 1.000000000000000000, 0.000000000000000000, 0.000000000000000000 ) ) ;
#207 = FACE_OUTER_BOUND ( 'NONE', #10, .T. ) ;
#208 = PERSON_AND_ORGANIZATION ( #4, #160 ) ;
#209 = CYLINDRICAL_SURFACE ( 'NONE', #100, 20.00000000000000000 ) ;
#210 = CALENDAR_DATE ( 2023, 13, 2 ) ;
#211 = DIRECTION ( 'NONE',  ( 0.000000000000000000, 0.000000000000000000, 1.000000000000000000 ) ) ;
#212 = LOCAL_TIME ( 8, 29, 4.000000000000000000, #189 ) ;
#213 = CARTESIAN_POINT ( 'NONE',  ( 0.000000000000000000, 0.000000000000000000, 500.0000000000000000 ) ) ;
#214 = CIRCLE ( 'NONE', #22, 20.00000000000000000 ) ;
#215 = EDGE_CURVE ( 'NONE', #68, #85, #148, .T. ) ;
#216 = CARTESIAN_POINT ( 'NONE',  ( 0.000000000000000000, 0.000000000000000000, 500.0000000000000000 ) ) ;
#217 = CARTESIAN_POINT ( 'NONE',  ( 0.000000000000000000, 0.000000000000000000, 0.000000000000000000 ) ) ;
#218 = DESIGN_CONTEXT ( 'detailed design', #92, 'design' ) ;
#219 = ADVANCED_FACE ( 'NONE', ( #251 ), #209, .T. ) ;
#220 = VERTEX_POINT ( 'NONE', #77 ) ;
#221 = FACE_OUTER_BOUND ( 'NONE', #69, .T. ) ;
#222 = DIRECTION ( 'NONE',  ( 0.000000000000000000, 0.000000000000000000, 1.000000000000000000 ) ) ;
#223 = CARTESIAN_POINT ( 'NONE',  ( 0.000000000000000000, 0.000000000000000000, 0.000000000000000000 ) ) ;
#224 = PERSON_AND_ORGANIZATION_ROLE ( 'creator' ) ;
#225 = ORIENTED_EDGE ( 'NONE', *, *, #2, .F. ) ;
#226 = COORDINATED_UNIVERSAL_TIME_OFFSET ( 1, 0, .AHEAD. ) ;
#227 = EDGE_LOOP ( 'NONE', ( #159, #186 ) ) ;
#228 = APPLICATION_PROTOCOL_DEFINITION ( 'international standard', 'config_control_design', 1994, #92 ) ;
#229 = DIRECTION ( 'NONE',  ( -1.000000000000000000, 0.000000000000000000, 0.000000000000000000 ) ) ;
#230 = PERSON_AND_ORGANIZATION_ROLE ( 'creator' ) ;
#231 =( NAMED_UNIT ( * ) SI_UNIT ( $, .STERADIAN. ) SOLID_ANGLE_UNIT ( ) );
#232 = CALENDAR_DATE ( 2023, 13, 2 ) ;
#233 = DIRECTION ( 'NONE',  ( -0.000000000000000000, -0.000000000000000000, -1.000000000000000000 ) ) ;
#234 = CC_DESIGN_PERSON_AND_ORGANIZATION_ASSIGNMENT ( #59, #116, ( #238 ) ) ;
#235 = DIRECTION ( 'NONE',  ( -1.000000000000000000, 0.000000000000000000, 0.000000000000000000 ) ) ;
#236 = AXIS2_PLACEMENT_3D ( 'NONE', #185, #166, #52 ) ;
#237 = ADVANCED_FACE ( 'NONE', ( #60 ), #250, .T. ) ;
#238 = SECURITY_CLASSIFICATION ( '', '', #130 ) ;
#239 = CC_DESIGN_PERSON_AND_ORGANIZATION_ASSIGNMENT ( #91, #72, ( #181 ) ) ;
#240 = EDGE_CURVE ( 'NONE', #220, #145, #24, .T. ) ;
#241 = DIRECTION ( 'NONE',  ( 0.000000000000000000, 0.000000000000000000, 1.000000000000000000 ) ) ;
#242 = CARTESIAN_POINT ( 'NONE',  ( -16.00000000000000000, 0.000000000000000000, 500.0000000000000000 ) ) ;
#243 = EDGE_LOOP ( 'NONE', ( #70, #204 ) ) ;
#244 = DIRECTION ( 'NONE',  ( 1.000000000000000000, 0.000000000000000000, 0.000000000000000000 ) ) ;
#245 = AXIS2_PLACEMENT_3D ( 'NONE', #248, #86, #32 ) ;
#246 = APPROVAL ( #57, 'NEURÈENÝ' ) ;
#247 = PERSON_AND_ORGANIZATION ( #4, #160 ) ;
#248 = CARTESIAN_POINT ( 'NONE',  ( 0.000000000000000000, 0.000000000000000000, 10.00000000000000000 ) ) ;
#249 = APPROVAL_DATE_TIME ( #11, #187 ) ;
#250 = CYLINDRICAL_SURFACE ( 'NONE', #167, 16.00000000000000000 ) ;
#251 = FACE_OUTER_BOUND ( 'NONE', #205, .T. ) ;
#252 = PERSON_AND_ORGANIZATION ( #4, #160 ) ;
#253 = CALENDAR_DATE ( 2023, 13, 2 ) ;
#254 = DIRECTION ( 'NONE',  ( 1.000000000000000000, 0.000000000000000000, 0.000000000000000000 ) ) ;
#255 = ORIENTED_EDGE ( 'NONE', *, *, #121, .F. ) ;
ENDSEC;
END-ISO-10303-21;
