ISO-10303-21;
HEADER;
FILE_DESCRIPTION (( 'STEP AP203' ),
    '1' );
FILE_NAME ('75ab.STEP',
    '2023-02-13T07:30:46',
    ( '' ),
    ( '' ),
    'SwSTEP 2.0',
    'SolidWorks 2019',
    '' );
FILE_SCHEMA (( 'CONFIG_CONTROL_DESIGN' ));
ENDSEC;

DATA;
#1 = APPROVAL ( #239, 'NEURÈENÝ' ) ;
#2 = CARTESIAN_POINT ( 'NONE',  ( 0.000000000000000000, 0.000000000000000000, 0.000000000000000000 ) ) ;
#3 = PLANE ( 'NONE',  #233 ) ;
#4 = AXIS2_PLACEMENT_3D ( 'NONE', #209, #116, #132 ) ;
#5 = ADVANCED_BREP_SHAPE_REPRESENTATION ( '75ab', ( #114, #13 ), #123 ) ;
#6 = DIRECTION ( 'NONE',  ( -0.000000000000000000, -0.000000000000000000, -1.000000000000000000 ) ) ;
#7 = DIRECTION ( 'NONE',  ( 1.000000000000000000, 0.000000000000000000, 0.000000000000000000 ) ) ;
#8 = LOCAL_TIME ( 8, 30, 46.00000000000000000, #180 ) ;
#9 = ORIENTED_EDGE ( 'NONE', *, *, #160, .T. ) ;
#10 = APPROVAL_ROLE ( '' ) ;
#11 = EDGE_LOOP ( 'NONE', ( #136, #90, #117, #196 ) ) ;
#12 = ORIENTED_EDGE ( 'NONE', *, *, #137, .T. ) ;
#13 = AXIS2_PLACEMENT_3D ( 'NONE', #2, #99, #124 ) ;
#14 = SHAPE_DEFINITION_REPRESENTATION ( #130, #5 ) ;
#15 = DIRECTION ( 'NONE',  ( 0.000000000000000000, 0.000000000000000000, 1.000000000000000000 ) ) ;
#16 = ADVANCED_FACE ( 'NONE', ( #168 ), #194, .T. ) ;
#17 = CC_DESIGN_APPROVAL ( #1, ( #153 ) ) ;
#18 = AXIS2_PLACEMENT_3D ( 'NONE', #126, #125, #198 ) ;
#19 = PERSON_AND_ORGANIZATION ( #101, #87 ) ;
#20 = PERSON_AND_ORGANIZATION ( #101, #87 ) ;
#21 = CALENDAR_DATE ( 2023, 13, 2 ) ;
#22 = PERSON_AND_ORGANIZATION ( #101, #87 ) ;
#23 = EDGE_CURVE ( 'NONE', #94, #213, #214, .T. ) ;
#24 = PERSON_AND_ORGANIZATION_ROLE ( 'creator' ) ;
#25 = FACE_OUTER_BOUND ( 'NONE', #11, .T. ) ;
#26 = LINE ( 'NONE', #219, #247 ) ;
#27 = EDGE_LOOP ( 'NONE', ( #225, #55 ) ) ;
#28 = VERTEX_POINT ( 'NONE', #115 ) ;
#29 = CIRCLE ( 'NONE', #120, 16.00000000000000000 ) ;
#30 = CARTESIAN_POINT ( 'NONE',  ( 0.000000000000000000, 0.000000000000000000, 1200.000000000000000 ) ) ;
#31 = CC_DESIGN_DATE_AND_TIME_ASSIGNMENT ( #159, #176, ( #74 ) ) ;
#32 = CARTESIAN_POINT ( 'NONE',  ( -12.50000000000000000, 0.000000000000000000, 1200.000000000000000 ) ) ;
#33 = CARTESIAN_POINT ( 'NONE',  ( 0.000000000000000000, 0.000000000000000000, 1200.000000000000000 ) ) ;
#34 = APPROVAL_DATE_TIME ( #151, #232 ) ;
#35 = VERTEX_POINT ( 'NONE', #190 ) ;
#36 = EDGE_LOOP ( 'NONE', ( #68, #208, #12, #245 ) ) ;
#37 = DESIGN_CONTEXT ( 'detailed design', #109, 'design' ) ;
#38 = AXIS2_PLACEMENT_3D ( 'NONE', #33, #15, #7 ) ;
#39 = VERTEX_POINT ( 'NONE', #147 ) ;
#40 = ADVANCED_FACE ( 'NONE', ( #242, #206 ), #51, .T. ) ;
#41 = PERSON_AND_ORGANIZATION_ROLE ( 'creator' ) ;
#42 = APPROVAL_PERSON_ORGANIZATION ( #103, #1, #235 ) ;
#43 =( NAMED_UNIT ( * ) SI_UNIT ( $, .STERADIAN. ) SOLID_ANGLE_UNIT ( ) );
#44 = DIRECTION ( 'NONE',  ( 1.000000000000000000, 0.000000000000000000, -0.000000000000000000 ) ) ;
#45 = CARTESIAN_POINT ( 'NONE',  ( -12.50000000000000000, 0.000000000000000000, 1200.000000000000000 ) ) ;
#46 =( NAMED_UNIT ( * ) PLANE_ANGLE_UNIT ( ) SI_UNIT ( $, .RADIAN. ) );
#47 = CARTESIAN_POINT ( 'NONE',  ( 0.000000000000000000, 0.000000000000000000, 0.000000000000000000 ) ) ;
#48 = FACE_OUTER_BOUND ( 'NONE', #175, .T. ) ;
#49 = DIRECTION ( 'NONE',  ( 1.000000000000000000, 0.000000000000000000, 0.000000000000000000 ) ) ;
#50 = ORIENTED_EDGE ( 'NONE', *, *, #121, .T. ) ;
#51 = PLANE ( 'NONE',  #106 ) ;
#52 = EDGE_LOOP ( 'NONE', ( #138, #9, #186, #66 ) ) ;
#53 = CARTESIAN_POINT ( 'NONE',  ( 16.00000000000000000, 1.959434878635765131E-15, 0.000000000000000000 ) ) ;
#54 = PLANE ( 'NONE',  #4 ) ;
#55 = ORIENTED_EDGE ( 'NONE', *, *, #155, .F. ) ;
#56 = AXIS2_PLACEMENT_3D ( 'NONE', #47, #158, #105 ) ;
#57 = APPROVAL_ROLE ( '' ) ;
#58 = PERSON_AND_ORGANIZATION_ROLE ( 'classification_officer' ) ;
#59 = CYLINDRICAL_SURFACE ( 'NONE', #134, 12.50000000000000000 ) ;
#60 = ADVANCED_FACE ( 'NONE', ( #246 ), #70, .T. ) ;
#61 = CARTESIAN_POINT ( 'NONE',  ( 0.000000000000000000, 0.000000000000000000, 10.00000000000000000 ) ) ;
#62 = MECHANICAL_CONTEXT ( 'NONE', #215, 'mechanical' ) ;
#63 = CARTESIAN_POINT ( 'NONE',  ( 0.000000000000000000, 0.000000000000000000, 0.000000000000000000 ) ) ;
#64 = CARTESIAN_POINT ( 'NONE',  ( 0.000000000000000000, 0.000000000000000000, 0.000000000000000000 ) ) ;
#65 = DIRECTION ( 'NONE',  ( -0.000000000000000000, -0.000000000000000000, -1.000000000000000000 ) ) ;
#66 = ORIENTED_EDGE ( 'NONE', *, *, #97, .F. ) ;
#67 = APPROVAL ( #79, 'NEURÈENÝ' ) ;
#68 = ORIENTED_EDGE ( 'NONE', *, *, #248, .F. ) ;
#69 = ADVANCED_FACE ( 'NONE', ( #224 ), #54, .T. ) ;
#70 = CYLINDRICAL_SURFACE ( 'NONE', #78, 16.00000000000000000 ) ;
#71 = CIRCLE ( 'NONE', #174, 12.50000000000000000 ) ;
#72 = VERTEX_POINT ( 'NONE', #88 ) ;
#73 = CALENDAR_DATE ( 2023, 13, 2 ) ;
#74 = PRODUCT_DEFINITION ( 'NEZNÁMÝ', '', #153, #37 ) ;
#75 = LOCAL_TIME ( 8, 30, 46.00000000000000000, #183 ) ;
#76 = CALENDAR_DATE ( 2023, 13, 2 ) ;
#77 = DIRECTION ( 'NONE',  ( 1.000000000000000000, 0.000000000000000000, 0.000000000000000000 ) ) ;
#78 = AXIS2_PLACEMENT_3D ( 'NONE', #166, #111, #150 ) ;
#79 = APPROVAL_STATUS ( 'not_yet_approved' ) ;
#80 = CARTESIAN_POINT ( 'NONE',  ( -12.50000000000000000, 0.000000000000000000, 10.00000000000000000 ) ) ;
#81 = EDGE_CURVE ( 'NONE', #28, #39, #29, .T. ) ;
#82 = DIRECTION ( 'NONE',  ( 0.000000000000000000, 0.000000000000000000, 1.000000000000000000 ) ) ;
#83 = DATE_AND_TIME ( #218, #192 ) ;
#84 = DIRECTION ( 'NONE',  ( 1.000000000000000000, 0.000000000000000000, 0.000000000000000000 ) ) ;
#85 = SECURITY_CLASSIFICATION ( '', '', #234 ) ;
#86 = LOCAL_TIME ( 8, 30, 46.00000000000000000, #200 ) ;
#87 = ORGANIZATION ( 'NEURÈENÝ', 'NEURÈENÝ', '' ) ;
#88 = CARTESIAN_POINT ( 'NONE',  ( -16.00000000000000000, 0.000000000000000000, 0.000000000000000000 ) ) ;
#89 = DIRECTION ( 'NONE',  ( 0.000000000000000000, 0.000000000000000000, 1.000000000000000000 ) ) ;
#90 = ORIENTED_EDGE ( 'NONE', *, *, #230, .F. ) ;
#91 = CARTESIAN_POINT ( 'NONE',  ( 12.50000000000000000, 1.530808498934191521E-15, 1200.000000000000000 ) ) ;
#92 = DIRECTION ( 'NONE',  ( -1.000000000000000000, 0.000000000000000000, 0.000000000000000000 ) ) ;
#93 = VECTOR ( 'NONE', #144, 1000.000000000000000 ) ;
#94 = VERTEX_POINT ( 'NONE', #91 ) ;
#95 = VERTEX_POINT ( 'NONE', #53 ) ;
#96 = CIRCLE ( 'NONE', #226, 12.50000000000000000 ) ;
#97 = EDGE_CURVE ( 'NONE', #213, #113, #169, .T. ) ;
#98 = CALENDAR_DATE ( 2023, 13, 2 ) ;
#99 = DIRECTION ( 'NONE',  ( 0.000000000000000000, 0.000000000000000000, 1.000000000000000000 ) ) ;
#100 = DIRECTION ( 'NONE',  ( 0.000000000000000000, 0.000000000000000000, 1.000000000000000000 ) ) ;
#101 = PERSON ( 'NEURÈENÝ', 'NEURÈENÝ', 'NEURÈENÝ', ('NEURÈENÝ'), ('NEURÈENÝ'), ('NEURÈENÝ') ) ;
#102 = EDGE_CURVE ( 'NONE', #113, #35, #96, .T. ) ;
#103 = PERSON_AND_ORGANIZATION ( #101, #87 ) ;
#104 = APPROVAL_DATE_TIME ( #216, #67 ) ;
#105 = DIRECTION ( 'NONE',  ( 1.000000000000000000, 0.000000000000000000, 0.000000000000000000 ) ) ;
#106 = AXIS2_PLACEMENT_3D ( 'NONE', #191, #170, #228 ) ;
#107 = LINE ( 'NONE', #146, #139 ) ;
#108 = EDGE_CURVE ( 'NONE', #95, #72, #201, .T. ) ;
#109 = APPLICATION_CONTEXT ( 'configuration controlled 3d designs of mechanical parts and assemblies' ) ;
#110 = DIRECTION ( 'NONE',  ( 1.000000000000000000, 0.000000000000000000, 0.000000000000000000 ) ) ;
#111 = DIRECTION ( 'NONE',  ( -0.000000000000000000, -0.000000000000000000, -1.000000000000000000 ) ) ;
#112 = VECTOR ( 'NONE', #6, 1000.000000000000000 ) ;
#113 = VERTEX_POINT ( 'NONE', #80 ) ;
#114 = MANIFOLD_SOLID_BREP ( 'Pøidat vysunutím3', #220 ) ;
#115 = CARTESIAN_POINT ( 'NONE',  ( 16.00000000000000000, 1.959434878635765131E-15, 10.00000000000000000 ) ) ;
#116 = DIRECTION ( 'NONE',  ( 0.000000000000000000, 0.000000000000000000, 1.000000000000000000 ) ) ;
#117 = ORIENTED_EDGE ( 'NONE', *, *, #97, .T. ) ;
#118 = CC_DESIGN_PERSON_AND_ORGANIZATION_ASSIGNMENT ( #222, #24, ( #153 ) ) ;
#119 = EDGE_LOOP ( 'NONE', ( #50, #188 ) ) ;
#120 = AXIS2_PLACEMENT_3D ( 'NONE', #167, #89, #110 ) ;
#121 = EDGE_CURVE ( 'NONE', #39, #28, #182, .T. ) ;
#122 = PERSON_AND_ORGANIZATION ( #101, #87 ) ;
#123 =( GEOMETRIC_REPRESENTATION_CONTEXT ( 3 ) GLOBAL_UNCERTAINTY_ASSIGNED_CONTEXT ( ( #197 ) ) GLOBAL_UNIT_ASSIGNED_CONTEXT ( ( #241, #46, #43 ) ) REPRESENTATION_CONTEXT ( 'NONE', 'WORKASPACE' ) );
#124 = DIRECTION ( 'NONE',  ( 1.000000000000000000, 0.000000000000000000, 0.000000000000000000 ) ) ;
#125 = DIRECTION ( 'NONE',  ( 0.000000000000000000, 0.000000000000000000, 1.000000000000000000 ) ) ;
#126 = CARTESIAN_POINT ( 'NONE',  ( 0.000000000000000000, 0.000000000000000000, 1200.000000000000000 ) ) ;
#127 = CARTESIAN_POINT ( 'NONE',  ( -16.00000000000000000, 0.000000000000000000, 10.00000000000000000 ) ) ;
#128 = CIRCLE ( 'NONE', #154, 16.00000000000000000 ) ;
#129 = DIRECTION ( 'NONE',  ( 0.000000000000000000, 0.000000000000000000, 1.000000000000000000 ) ) ;
#130 = PRODUCT_DEFINITION_SHAPE ( 'NONE', 'NONE',  #74 ) ;
#131 = LINE ( 'NONE', #127, #93 ) ;
#132 = DIRECTION ( 'NONE',  ( 1.000000000000000000, 0.000000000000000000, -0.000000000000000000 ) ) ;
#133 = ORIENTED_EDGE ( 'NONE', *, *, #230, .T. ) ;
#134 = AXIS2_PLACEMENT_3D ( 'NONE', #163, #164, #142 ) ;
#135 = ORIENTED_EDGE ( 'NONE', *, *, #137, .F. ) ;
#136 = ORIENTED_EDGE ( 'NONE', *, *, #160, .F. ) ;
#137 = EDGE_CURVE ( 'NONE', #39, #72, #131, .T. ) ;
#138 = ORIENTED_EDGE ( 'NONE', *, *, #23, .F. ) ;
#139 = VECTOR ( 'NONE', #184, 1000.000000000000000 ) ;
#140 = EDGE_LOOP ( 'NONE', ( #133, #229 ) ) ;
#141 = COORDINATED_UNIVERSAL_TIME_OFFSET ( 1, 0, .AHEAD. ) ;
#142 = DIRECTION ( 'NONE',  ( -1.000000000000000000, 0.000000000000000000, 0.000000000000000000 ) ) ;
#143 = CC_DESIGN_PERSON_AND_ORGANIZATION_ASSIGNMENT ( #20, #58, ( #85 ) ) ;
#144 = DIRECTION ( 'NONE',  ( -0.000000000000000000, -0.000000000000000000, -1.000000000000000000 ) ) ;
#145 = APPROVAL_DATE_TIME ( #156, #1 ) ;
#146 = CARTESIAN_POINT ( 'NONE',  ( 16.00000000000000000, 1.959434878635765131E-15, 10.00000000000000000 ) ) ;
#147 = CARTESIAN_POINT ( 'NONE',  ( -16.00000000000000000, 0.000000000000000000, 10.00000000000000000 ) ) ;
#148 = ORIENTED_EDGE ( 'NONE', *, *, #81, .F. ) ;
#149 = CC_DESIGN_PERSON_AND_ORGANIZATION_ASSIGNMENT ( #19, #41, ( #74 ) ) ;
#150 = DIRECTION ( 'NONE',  ( -1.000000000000000000, 0.000000000000000000, 0.000000000000000000 ) ) ;
#151 = DATE_AND_TIME ( #73, #86 ) ;
#152 = ORIENTED_EDGE ( 'NONE', *, *, #207, .F. ) ;
#153 = PRODUCT_DEFINITION_FORMATION_WITH_SPECIFIED_SOURCE ( 'LIBOVOLNÝ', '', #202, .NOT_KNOWN. ) ;
#154 = AXIS2_PLACEMENT_3D ( 'NONE', #63, #82, #203 ) ;
#155 = EDGE_CURVE ( 'NONE', #35, #113, #71, .T. ) ;
#156 = DATE_AND_TIME ( #76, #187 ) ;
#157 = APPLICATION_PROTOCOL_DEFINITION ( 'international standard', 'config_control_design', 1994, #109 ) ;
#158 = DIRECTION ( 'NONE',  ( 0.000000000000000000, 0.000000000000000000, 1.000000000000000000 ) ) ;
#159 = DATE_AND_TIME ( #98, #8 ) ;
#160 = EDGE_CURVE ( 'NONE', #94, #35, #26, .T. ) ;
#161 = AXIS2_PLACEMENT_3D ( 'NONE', #30, #65, #92 ) ;
#162 = COORDINATED_UNIVERSAL_TIME_OFFSET ( 1, 0, .AHEAD. ) ;
#163 = CARTESIAN_POINT ( 'NONE',  ( 0.000000000000000000, 0.000000000000000000, 1200.000000000000000 ) ) ;
#164 = DIRECTION ( 'NONE',  ( -0.000000000000000000, -0.000000000000000000, -1.000000000000000000 ) ) ;
#165 = DATE_TIME_ROLE ( 'classification_date' ) ;
#166 = CARTESIAN_POINT ( 'NONE',  ( 0.000000000000000000, 0.000000000000000000, 10.00000000000000000 ) ) ;
#167 = CARTESIAN_POINT ( 'NONE',  ( 0.000000000000000000, 0.000000000000000000, 10.00000000000000000 ) ) ;
#168 = FACE_OUTER_BOUND ( 'NONE', #52, .T. ) ;
#169 = LINE ( 'NONE', #32, #112 ) ;
#170 = DIRECTION ( 'NONE',  ( 0.000000000000000000, 0.000000000000000000, 1.000000000000000000 ) ) ;
#171 = AXIS2_PLACEMENT_3D ( 'NONE', #61, #236, #221 ) ;
#172 = ORIENTED_EDGE ( 'NONE', *, *, #108, .F. ) ;
#173 = ORIENTED_EDGE ( 'NONE', *, *, #108, .T. ) ;
#174 = AXIS2_PLACEMENT_3D ( 'NONE', #254, #205, #77 ) ;
#175 = EDGE_LOOP ( 'NONE', ( #152, #172 ) ) ;
#176 = DATE_TIME_ROLE ( 'creation_date' ) ;
#177 = CC_DESIGN_SECURITY_CLASSIFICATION ( #85, ( #153 ) ) ;
#178 = PERSON_AND_ORGANIZATION_ROLE ( 'design_owner' ) ;
#179 = FACE_OUTER_BOUND ( 'NONE', #244, .T. ) ;
#180 = COORDINATED_UNIVERSAL_TIME_OFFSET ( 1, 0, .AHEAD. ) ;
#181 = DIRECTION ( 'NONE',  ( -0.000000000000000000, -0.000000000000000000, -1.000000000000000000 ) ) ;
#182 = CIRCLE ( 'NONE', #251, 16.00000000000000000 ) ;
#183 = COORDINATED_UNIVERSAL_TIME_OFFSET ( 1, 0, .AHEAD. ) ;
#184 = DIRECTION ( 'NONE',  ( -0.000000000000000000, -0.000000000000000000, -1.000000000000000000 ) ) ;
#185 = CC_DESIGN_PERSON_AND_ORGANIZATION_ASSIGNMENT ( #22, #178, ( #202 ) ) ;
#186 = ORIENTED_EDGE ( 'NONE', *, *, #155, .T. ) ;
#187 = LOCAL_TIME ( 8, 30, 46.00000000000000000, #162 ) ;
#188 = ORIENTED_EDGE ( 'NONE', *, *, #81, .T. ) ;
#189 = PRODUCT_RELATED_PRODUCT_CATEGORY ( 'detail', '', ( #202 ) ) ;
#190 = CARTESIAN_POINT ( 'NONE',  ( 12.50000000000000000, 1.530808498934191521E-15, 10.00000000000000000 ) ) ;
#191 = CARTESIAN_POINT ( 'NONE',  ( 0.000000000000000000, 0.000000000000000000, 10.00000000000000000 ) ) ;
#192 = LOCAL_TIME ( 8, 30, 46.00000000000000000, #141 ) ;
#193 = APPROVAL_PERSON_ORGANIZATION ( #122, #67, #57 ) ;
#194 = CYLINDRICAL_SURFACE ( 'NONE', #161, 12.50000000000000000 ) ;
#195 = ADVANCED_FACE ( 'NONE', ( #179 ), #255, .T. ) ;
#196 = ORIENTED_EDGE ( 'NONE', *, *, #102, .T. ) ;
#197 = UNCERTAINTY_MEASURE_WITH_UNIT (LENGTH_MEASURE( 1.000000000000000082E-05 ), #241, 'distance_accuracy_value', 'NONE');
#198 = DIRECTION ( 'NONE',  ( 1.000000000000000000, 0.000000000000000000, 0.000000000000000000 ) ) ;
#199 = APPLICATION_PROTOCOL_DEFINITION ( 'international standard', 'config_control_design', 1994, #215 ) ;
#200 = COORDINATED_UNIVERSAL_TIME_OFFSET ( 1, 0, .AHEAD. ) ;
#201 = CIRCLE ( 'NONE', #56, 16.00000000000000000 ) ;
#202 = PRODUCT ( '75ab', '75ab', '', ( #62 ) ) ;
#203 = DIRECTION ( 'NONE',  ( 1.000000000000000000, 0.000000000000000000, 0.000000000000000000 ) ) ;
#204 = ADVANCED_FACE ( 'NONE', ( #48 ), #3, .F. ) ;
#205 = DIRECTION ( 'NONE',  ( 0.000000000000000000, 0.000000000000000000, 1.000000000000000000 ) ) ;
#206 = FACE_OUTER_BOUND ( 'NONE', #119, .T. ) ;
#207 = EDGE_CURVE ( 'NONE', #72, #95, #128, .T. ) ;
#208 = ORIENTED_EDGE ( 'NONE', *, *, #121, .F. ) ;
#209 = CARTESIAN_POINT ( 'NONE',  ( 0.000000000000000000, 0.000000000000000000, 1200.000000000000000 ) ) ;
#210 = ADVANCED_FACE ( 'NONE', ( #25 ), #59, .T. ) ;
#211 = ORIENTED_EDGE ( 'NONE', *, *, #248, .T. ) ;
#212 = PERSON_AND_ORGANIZATION ( #101, #87 ) ;
#213 = VERTEX_POINT ( 'NONE', #45 ) ;
#214 = CIRCLE ( 'NONE', #38, 12.50000000000000000 ) ;
#215 = APPLICATION_CONTEXT ( 'configuration controlled 3d designs of mechanical parts and assemblies' ) ;
#216 = DATE_AND_TIME ( #21, #75 ) ;
#217 = CC_DESIGN_APPROVAL ( #232, ( #85 ) ) ;
#218 = CALENDAR_DATE ( 2023, 13, 2 ) ;
#219 = CARTESIAN_POINT ( 'NONE',  ( 12.50000000000000000, 1.530808498934191521E-15, 1200.000000000000000 ) ) ;
#220 = CLOSED_SHELL ( 'NONE', ( #16, #195, #60, #40, #204, #210, #69 ) ) ;
#221 = DIRECTION ( 'NONE',  ( -1.000000000000000000, 0.000000000000000000, 0.000000000000000000 ) ) ;
#222 = PERSON_AND_ORGANIZATION ( #101, #87 ) ;
#223 = CARTESIAN_POINT ( 'NONE',  ( 0.000000000000000000, 0.000000000000000000, 10.00000000000000000 ) ) ;
#224 = FACE_OUTER_BOUND ( 'NONE', #140, .T. ) ;
#225 = ORIENTED_EDGE ( 'NONE', *, *, #102, .F. ) ;
#226 = AXIS2_PLACEMENT_3D ( 'NONE', #243, #100, #84 ) ;
#227 = APPROVAL_STATUS ( 'not_yet_approved' ) ;
#228 = DIRECTION ( 'NONE',  ( 1.000000000000000000, 0.000000000000000000, -0.000000000000000000 ) ) ;
#229 = ORIENTED_EDGE ( 'NONE', *, *, #23, .T. ) ;
#230 = EDGE_CURVE ( 'NONE', #213, #94, #237, .T. ) ;
#231 = CC_DESIGN_APPROVAL ( #67, ( #74 ) ) ;
#232 = APPROVAL ( #227, 'NEURÈENÝ' ) ;
#233 = AXIS2_PLACEMENT_3D ( 'NONE', #64, #129, #44 ) ;
#234 = SECURITY_CLASSIFICATION_LEVEL ( 'unclassified' ) ;
#235 = APPROVAL_ROLE ( '' ) ;
#236 = DIRECTION ( 'NONE',  ( -0.000000000000000000, -0.000000000000000000, -1.000000000000000000 ) ) ;
#237 = CIRCLE ( 'NONE', #18, 12.50000000000000000 ) ;
#238 = CC_DESIGN_DATE_AND_TIME_ASSIGNMENT ( #83, #165, ( #85 ) ) ;
#239 = APPROVAL_STATUS ( 'not_yet_approved' ) ;
#240 = DIRECTION ( 'NONE',  ( 0.000000000000000000, 0.000000000000000000, 1.000000000000000000 ) ) ;
#241 =( LENGTH_UNIT ( ) NAMED_UNIT ( * ) SI_UNIT ( .MILLI., .METRE. ) );
#242 = FACE_BOUND ( 'NONE', #27, .T. ) ;
#243 = CARTESIAN_POINT ( 'NONE',  ( 0.000000000000000000, 0.000000000000000000, 10.00000000000000000 ) ) ;
#244 = EDGE_LOOP ( 'NONE', ( #148, #211, #173, #135 ) ) ;
#245 = ORIENTED_EDGE ( 'NONE', *, *, #207, .T. ) ;
#246 = FACE_OUTER_BOUND ( 'NONE', #36, .T. ) ;
#247 = VECTOR ( 'NONE', #181, 1000.000000000000000 ) ;
#248 = EDGE_CURVE ( 'NONE', #28, #95, #107, .T. ) ;
#249 = CC_DESIGN_PERSON_AND_ORGANIZATION_ASSIGNMENT ( #253, #252, ( #153 ) ) ;
#250 = APPROVAL_PERSON_ORGANIZATION ( #212, #232, #10 ) ;
#251 = AXIS2_PLACEMENT_3D ( 'NONE', #223, #240, #49 ) ;
#252 = PERSON_AND_ORGANIZATION_ROLE ( 'design_supplier' ) ;
#253 = PERSON_AND_ORGANIZATION ( #101, #87 ) ;
#254 = CARTESIAN_POINT ( 'NONE',  ( 0.000000000000000000, 0.000000000000000000, 10.00000000000000000 ) ) ;
#255 = CYLINDRICAL_SURFACE ( 'NONE', #171, 16.00000000000000000 ) ;
ENDSEC;
END-ISO-10303-21;
