ISO-10303-21;
HEADER;
FILE_DESCRIPTION (( 'STEP AP203' ),
    '1' );
FILE_NAME ('90ab.STEP',
    '2023-02-13T10:37:43',
    ( '' ),
    ( '' ),
    'SwSTEP 2.0',
    'SolidWorks 2019',
    '' );
FILE_SCHEMA (( 'CONFIG_CONTROL_DESIGN' ));
ENDSEC;

DATA;
#1 = DIRECTION ( 'NONE',  ( 0.000000000000000000, 0.000000000000000000, 1.000000000000000000 ) ) ;
#2 = UNCERTAINTY_MEASURE_WITH_UNIT (LENGTH_MEASURE( 1.000000000000000082E-05 ), #182, 'distance_accuracy_value', 'NONE');
#3 = CC_DESIGN_APPROVAL ( #202, ( #192 ) ) ;
#4 = PLANE ( 'NONE',  #58 ) ;
#5 = ADVANCED_FACE ( 'NONE', ( #236 ), #116, .T. ) ;
#6 = DIRECTION ( 'NONE',  ( -0.000000000000000000, -0.000000000000000000, -1.000000000000000000 ) ) ;
#7 =( NAMED_UNIT ( * ) SI_UNIT ( $, .STERADIAN. ) SOLID_ANGLE_UNIT ( ) );
#8 = AXIS2_PLACEMENT_3D ( 'NONE', #71, #18, #255 ) ;
#9 = EDGE_CURVE ( 'NONE', #189, #37, #111, .T. ) ;
#10 = PERSON_AND_ORGANIZATION_ROLE ( 'design_supplier' ) ;
#11 = PRODUCT_DEFINITION_SHAPE ( 'NONE', 'NONE',  #192 ) ;
#12 = DATE_AND_TIME ( #248, #15 ) ;
#13 = VECTOR ( 'NONE', #17, 1000.000000000000000 ) ;
#14 = EDGE_LOOP ( 'NONE', ( #134, #96 ) ) ;
#15 = LOCAL_TIME ( 11, 37, 43.00000000000000000, #63 ) ;
#16 = ADVANCED_FACE ( 'NONE', ( #121 ), #21, .T. ) ;
#17 = DIRECTION ( 'NONE',  ( -0.000000000000000000, -0.000000000000000000, -1.000000000000000000 ) ) ;
#18 = DIRECTION ( 'NONE',  ( 0.000000000000000000, 0.000000000000000000, 1.000000000000000000 ) ) ;
#19 = CARTESIAN_POINT ( 'NONE',  ( 6.250000000000000000, 7.654042494670957606E-16, 315.0000000000000000 ) ) ;
#20 = CIRCLE ( 'NONE', #249, 9.000000000000000000 ) ;
#21 = CYLINDRICAL_SURFACE ( 'NONE', #133, 9.000000000000000000 ) ;
#22 = DIRECTION ( 'NONE',  ( 0.000000000000000000, 0.000000000000000000, 1.000000000000000000 ) ) ;
#23 = DIRECTION ( 'NONE',  ( 1.000000000000000000, 0.000000000000000000, 0.000000000000000000 ) ) ;
#24 = DIRECTION ( 'NONE',  ( 0.000000000000000000, 0.000000000000000000, 1.000000000000000000 ) ) ;
#25 = FACE_OUTER_BOUND ( 'NONE', #238, .T. ) ;
#26 = CYLINDRICAL_SURFACE ( 'NONE', #141, 9.000000000000000000 ) ;
#27 = CIRCLE ( 'NONE', #168, 6.250000000000000000 ) ;
#28 = FACE_OUTER_BOUND ( 'NONE', #217, .T. ) ;
#29 = MANIFOLD_SOLID_BREP ( 'Pøidat vysunutím3', #147 ) ;
#30 = PERSON_AND_ORGANIZATION_ROLE ( 'classification_officer' ) ;
#31 = PERSON_AND_ORGANIZATION ( #130, #219 ) ;
#32 = PERSON_AND_ORGANIZATION_ROLE ( 'design_owner' ) ;
#33 = APPROVAL_ROLE ( '' ) ;
#34 = VECTOR ( 'NONE', #234, 1000.000000000000000 ) ;
#35 = DIRECTION ( 'NONE',  ( -0.000000000000000000, -0.000000000000000000, -1.000000000000000000 ) ) ;
#36 = CARTESIAN_POINT ( 'NONE',  ( 0.000000000000000000, 0.000000000000000000, 7.000000000000000000 ) ) ;
#37 = VERTEX_POINT ( 'NONE', #172 ) ;
#38 = ORIENTED_EDGE ( 'NONE', *, *, #218, .T. ) ;
#39 = AXIS2_PLACEMENT_3D ( 'NONE', #222, #102, #201 ) ;
#40 = PLANE ( 'NONE',  #68 ) ;
#41 = DIRECTION ( 'NONE',  ( 1.000000000000000000, 0.000000000000000000, 0.000000000000000000 ) ) ;
#42 = SECURITY_CLASSIFICATION ( '', '', #113 ) ;
#43 = LINE ( 'NONE', #159, #139 ) ;
#44 = DIRECTION ( 'NONE',  ( 1.000000000000000000, 0.000000000000000000, 0.000000000000000000 ) ) ;
#45 = DIRECTION ( 'NONE',  ( 1.000000000000000000, 0.000000000000000000, -0.000000000000000000 ) ) ;
#46 = PRODUCT ( '90ab', '90ab', '', ( #221 ) ) ;
#47 = VERTEX_POINT ( 'NONE', #19 ) ;
#48 = CC_DESIGN_DATE_AND_TIME_ASSIGNMENT ( #112, #65, ( #192 ) ) ;
#49 = PERSON_AND_ORGANIZATION_ROLE ( 'creator' ) ;
#50 = PERSON_AND_ORGANIZATION_ROLE ( 'creator' ) ;
#51 = EDGE_CURVE ( 'NONE', #47, #189, #59, .T. ) ;
#52 = COORDINATED_UNIVERSAL_TIME_OFFSET ( 1, 0, .AHEAD. ) ;
#53 = VERTEX_POINT ( 'NONE', #197 ) ;
#54 = ORIENTED_EDGE ( 'NONE', *, *, #245, .T. ) ;
#55 = CC_DESIGN_APPROVAL ( #75, ( #42 ) ) ;
#56 = ORIENTED_EDGE ( 'NONE', *, *, #51, .F. ) ;
#57 = EDGE_LOOP ( 'NONE', ( #138, #207, #211, #158 ) ) ;
#58 = AXIS2_PLACEMENT_3D ( 'NONE', #61, #78, #45 ) ;
#59 = LINE ( 'NONE', #173, #13 ) ;
#60 = DIRECTION ( 'NONE',  ( 1.000000000000000000, 0.000000000000000000, -0.000000000000000000 ) ) ;
#61 = CARTESIAN_POINT ( 'NONE',  ( 0.000000000000000000, 0.000000000000000000, 315.0000000000000000 ) ) ;
#62 = DIRECTION ( 'NONE',  ( 0.000000000000000000, 0.000000000000000000, 1.000000000000000000 ) ) ;
#63 = COORDINATED_UNIVERSAL_TIME_OFFSET ( 1, 0, .AHEAD. ) ;
#64 = AXIS2_PLACEMENT_3D ( 'NONE', #244, #24, #77 ) ;
#65 = DATE_TIME_ROLE ( 'creation_date' ) ;
#66 = PERSON_AND_ORGANIZATION ( #130, #219 ) ;
#67 = AXIS2_PLACEMENT_3D ( 'NONE', #76, #1, #253 ) ;
#68 = AXIS2_PLACEMENT_3D ( 'NONE', #36, #22, #232 ) ;
#69 = APPROVAL_STATUS ( 'not_yet_approved' ) ;
#70 = LOCAL_TIME ( 11, 37, 43.00000000000000000, #52 ) ;
#71 = CARTESIAN_POINT ( 'NONE',  ( 0.000000000000000000, 0.000000000000000000, 7.000000000000000000 ) ) ;
#72 = ORIENTED_EDGE ( 'NONE', *, *, #152, .T. ) ;
#73 = CIRCLE ( 'NONE', #205, 9.000000000000000000 ) ;
#74 = EDGE_LOOP ( 'NONE', ( #151, #94 ) ) ;
#75 = APPROVAL ( #208, 'NEURÈENÝ' ) ;
#76 = CARTESIAN_POINT ( 'NONE',  ( 0.000000000000000000, 0.000000000000000000, 315.0000000000000000 ) ) ;
#77 = DIRECTION ( 'NONE',  ( 1.000000000000000000, 0.000000000000000000, 0.000000000000000000 ) ) ;
#78 = DIRECTION ( 'NONE',  ( 0.000000000000000000, 0.000000000000000000, 1.000000000000000000 ) ) ;
#79 = CARTESIAN_POINT ( 'NONE',  ( 0.000000000000000000, 0.000000000000000000, 0.000000000000000000 ) ) ;
#80 = LOCAL_TIME ( 11, 37, 43.00000000000000000, #150 ) ;
#81 = LINE ( 'NONE', #241, #126 ) ;
#82 = PERSON_AND_ORGANIZATION ( #130, #219 ) ;
#83 = CALENDAR_DATE ( 2023, 13, 2 ) ;
#84 = ORIENTED_EDGE ( 'NONE', *, *, #237, .F. ) ;
#85 = APPROVAL_STATUS ( 'not_yet_approved' ) ;
#86 = VERTEX_POINT ( 'NONE', #98 ) ;
#87 = CC_DESIGN_PERSON_AND_ORGANIZATION_ASSIGNMENT ( #184, #10, ( #101 ) ) ;
#88 = PERSON_AND_ORGANIZATION ( #130, #219 ) ;
#89 = ORIENTED_EDGE ( 'NONE', *, *, #97, .T. ) ;
#90 = APPROVAL_PERSON_ORGANIZATION ( #31, #202, #246 ) ;
#91 = APPROVAL_PERSON_ORGANIZATION ( #247, #75, #33 ) ;
#92 = VERTEX_POINT ( 'NONE', #174 ) ;
#93 = CC_DESIGN_PERSON_AND_ORGANIZATION_ASSIGNMENT ( #88, #50, ( #192 ) ) ;
#94 = ORIENTED_EDGE ( 'NONE', *, *, #154, .T. ) ;
#95 = CC_DESIGN_DATE_AND_TIME_ASSIGNMENT ( #132, #231, ( #42 ) ) ;
#96 = ORIENTED_EDGE ( 'NONE', *, *, #9, .F. ) ;
#97 = EDGE_CURVE ( 'NONE', #170, #92, #194, .T. ) ;
#98 = CARTESIAN_POINT ( 'NONE',  ( 9.000000000000000000, 1.102182119232617714E-15, 0.000000000000000000 ) ) ;
#99 = EDGE_LOOP ( 'NONE', ( #89, #38 ) ) ;
#100 = CARTESIAN_POINT ( 'NONE',  ( 6.250000000000000000, 7.654042494670957606E-16, 7.000000000000000000 ) ) ;
#101 = PRODUCT_DEFINITION_FORMATION_WITH_SPECIFIED_SOURCE ( 'LIBOVOLNÝ', '', #46, .NOT_KNOWN. ) ;
#102 = DIRECTION ( 'NONE',  ( -0.000000000000000000, -0.000000000000000000, -1.000000000000000000 ) ) ;
#103 = CC_DESIGN_PERSON_AND_ORGANIZATION_ASSIGNMENT ( #66, #32, ( #46 ) ) ;
#104 = DIRECTION ( 'NONE',  ( 0.000000000000000000, 0.000000000000000000, 1.000000000000000000 ) ) ;
#105 = AXIS2_PLACEMENT_3D ( 'NONE', #79, #108, #60 ) ;
#106 = CARTESIAN_POINT ( 'NONE',  ( 0.000000000000000000, 0.000000000000000000, 0.000000000000000000 ) ) ;
#107 = APPROVAL_PERSON_ORGANIZATION ( #228, #224, #149 ) ;
#108 = DIRECTION ( 'NONE',  ( 0.000000000000000000, 0.000000000000000000, 1.000000000000000000 ) ) ;
#109 = APPROVAL_DATE_TIME ( #185, #75 ) ;
#110 = EDGE_CURVE ( 'NONE', #53, #47, #181, .T. ) ;
#111 = CIRCLE ( 'NONE', #252, 6.250000000000000000 ) ;
#112 = DATE_AND_TIME ( #166, #164 ) ;
#113 = SECURITY_CLASSIFICATION_LEVEL ( 'unclassified' ) ;
#114 = ORIENTED_EDGE ( 'NONE', *, *, #237, .T. ) ;
#115 = EDGE_LOOP ( 'NONE', ( #84, #118 ) ) ;
#116 = CYLINDRICAL_SURFACE ( 'NONE', #242, 6.250000000000000000 ) ;
#117 = EDGE_LOOP ( 'NONE', ( #254, #136, #135, #114 ) ) ;
#118 = ORIENTED_EDGE ( 'NONE', *, *, #198, .F. ) ;
#119 = EDGE_CURVE ( 'NONE', #53, #37, #239, .T. ) ;
#120 = CARTESIAN_POINT ( 'NONE',  ( 0.000000000000000000, 0.000000000000000000, 315.0000000000000000 ) ) ;
#121 = FACE_OUTER_BOUND ( 'NONE', #117, .T. ) ;
#122 = DIRECTION ( 'NONE',  ( 1.000000000000000000, 0.000000000000000000, 0.000000000000000000 ) ) ;
#123 = CARTESIAN_POINT ( 'NONE',  ( 0.000000000000000000, 0.000000000000000000, 315.0000000000000000 ) ) ;
#124 = DIRECTION ( 'NONE',  ( 1.000000000000000000, 0.000000000000000000, 0.000000000000000000 ) ) ;
#125 = FACE_OUTER_BOUND ( 'NONE', #74, .T. ) ;
#126 = VECTOR ( 'NONE', #6, 1000.000000000000000 ) ;
#127 = DIRECTION ( 'NONE',  ( 0.000000000000000000, 0.000000000000000000, 1.000000000000000000 ) ) ;
#128 = AXIS2_PLACEMENT_3D ( 'NONE', #162, #62, #122 ) ;
#129 = COORDINATED_UNIVERSAL_TIME_OFFSET ( 1, 0, .AHEAD. ) ;
#130 = PERSON ( 'NEURÈENÝ', 'NEURÈENÝ', 'NEURÈENÝ', ('NEURÈENÝ'), ('NEURÈENÝ'), ('NEURÈENÝ') ) ;
#131 = SHAPE_DEFINITION_REPRESENTATION ( #11, #233 ) ;
#132 = DATE_AND_TIME ( #83, #80 ) ;
#133 = AXIS2_PLACEMENT_3D ( 'NONE', #215, #193, #251 ) ;
#134 = ORIENTED_EDGE ( 'NONE', *, *, #245, .F. ) ;
#135 = ORIENTED_EDGE ( 'NONE', *, *, #175, .T. ) ;
#136 = ORIENTED_EDGE ( 'NONE', *, *, #97, .F. ) ;
#137 = DIRECTION ( 'NONE',  ( -1.000000000000000000, 0.000000000000000000, 0.000000000000000000 ) ) ;
#138 = ORIENTED_EDGE ( 'NONE', *, *, #154, .F. ) ;
#139 = VECTOR ( 'NONE', #178, 1000.000000000000000 ) ;
#140 = FACE_BOUND ( 'NONE', #14, .T. ) ;
#141 = AXIS2_PLACEMENT_3D ( 'NONE', #145, #161, #225 ) ;
#142 = ADVANCED_FACE ( 'NONE', ( #140, #220 ), #40, .T. ) ;
#143 = ADVANCED_FACE ( 'NONE', ( #213 ), #191, .F. ) ;
#144 = CARTESIAN_POINT ( 'NONE',  ( 0.000000000000000000, 0.000000000000000000, 7.000000000000000000 ) ) ;
#145 = CARTESIAN_POINT ( 'NONE',  ( 0.000000000000000000, 0.000000000000000000, 7.000000000000000000 ) ) ;
#146 = DIRECTION ( 'NONE',  ( 0.000000000000000000, 0.000000000000000000, 1.000000000000000000 ) ) ;
#147 = CLOSED_SHELL ( 'NONE', ( #5, #209, #16, #142, #143, #223, #163 ) ) ;
#148 = APPROVAL_DATE_TIME ( #12, #224 ) ;
#149 = APPROVAL_ROLE ( '' ) ;
#150 = COORDINATED_UNIVERSAL_TIME_OFFSET ( 1, 0, .AHEAD. ) ;
#151 = ORIENTED_EDGE ( 'NONE', *, *, #110, .T. ) ;
#152 = EDGE_CURVE ( 'NONE', #92, #86, #43, .T. ) ;
#153 = CARTESIAN_POINT ( 'NONE',  ( -6.250000000000000000, 0.000000000000000000, 315.0000000000000000 ) ) ;
#154 = EDGE_CURVE ( 'NONE', #47, #53, #27, .T. ) ;
#155 = CIRCLE ( 'NONE', #235, 9.000000000000000000 ) ;
#156 = ORIENTED_EDGE ( 'NONE', *, *, #198, .T. ) ;
#157 = ORIENTED_EDGE ( 'NONE', *, *, #119, .T. ) ;
#158 = ORIENTED_EDGE ( 'NONE', *, *, #119, .F. ) ;
#159 = CARTESIAN_POINT ( 'NONE',  ( 9.000000000000000000, 1.102182119232617714E-15, 7.000000000000000000 ) ) ;
#160 =( NAMED_UNIT ( * ) PLANE_ANGLE_UNIT ( ) SI_UNIT ( $, .RADIAN. ) );
#161 = DIRECTION ( 'NONE',  ( -0.000000000000000000, -0.000000000000000000, -1.000000000000000000 ) ) ;
#162 = CARTESIAN_POINT ( 'NONE',  ( 0.000000000000000000, 0.000000000000000000, 0.000000000000000000 ) ) ;
#163 = ADVANCED_FACE ( 'NONE', ( #125 ), #4, .T. ) ;
#164 = LOCAL_TIME ( 11, 37, 43.00000000000000000, #129 ) ;
#165 = PERSON_AND_ORGANIZATION ( #130, #219 ) ;
#166 = CALENDAR_DATE ( 2023, 13, 2 ) ;
#167 = DATE_AND_TIME ( #212, #243 ) ;
#168 = AXIS2_PLACEMENT_3D ( 'NONE', #123, #200, #44 ) ;
#169 = ORIENTED_EDGE ( 'NONE', *, *, #175, .F. ) ;
#170 = VERTEX_POINT ( 'NONE', #203 ) ;
#171 = PRODUCT_RELATED_PRODUCT_CATEGORY ( 'detail', '', ( #46 ) ) ;
#172 = CARTESIAN_POINT ( 'NONE',  ( -6.250000000000000000, 0.000000000000000000, 7.000000000000000000 ) ) ;
#173 = CARTESIAN_POINT ( 'NONE',  ( 6.250000000000000000, 7.654042494670957606E-16, 315.0000000000000000 ) ) ;
#174 = CARTESIAN_POINT ( 'NONE',  ( 9.000000000000000000, 1.102182119232617714E-15, 7.000000000000000000 ) ) ;
#175 = EDGE_CURVE ( 'NONE', #170, #176, #81, .T. ) ;
#176 = VERTEX_POINT ( 'NONE', #204 ) ;
#177 = CIRCLE ( 'NONE', #64, 6.250000000000000000 ) ;
#178 = DIRECTION ( 'NONE',  ( -0.000000000000000000, -0.000000000000000000, -1.000000000000000000 ) ) ;
#179 = DESIGN_CONTEXT ( 'detailed design', #230, 'design' ) ;
#180 = CC_DESIGN_PERSON_AND_ORGANIZATION_ASSIGNMENT ( #165, #49, ( #101 ) ) ;
#181 = CIRCLE ( 'NONE', #67, 6.250000000000000000 ) ;
#182 =( LENGTH_UNIT ( ) NAMED_UNIT ( * ) SI_UNIT ( .MILLI., .METRE. ) );
#183 = CYLINDRICAL_SURFACE ( 'NONE', #39, 6.250000000000000000 ) ;
#184 = PERSON_AND_ORGANIZATION ( #130, #219 ) ;
#185 = DATE_AND_TIME ( #206, #70 ) ;
#186 =( GEOMETRIC_REPRESENTATION_CONTEXT ( 3 ) GLOBAL_UNCERTAINTY_ASSIGNED_CONTEXT ( ( #2 ) ) GLOBAL_UNIT_ASSIGNED_CONTEXT ( ( #182, #160, #7 ) ) REPRESENTATION_CONTEXT ( 'NONE', 'WORKASPACE' ) );
#187 = APPROVAL_DATE_TIME ( #167, #202 ) ;
#188 = COORDINATED_UNIVERSAL_TIME_OFFSET ( 1, 0, .AHEAD. ) ;
#189 = VERTEX_POINT ( 'NONE', #100 ) ;
#190 = DIRECTION ( 'NONE',  ( 1.000000000000000000, 0.000000000000000000, 0.000000000000000000 ) ) ;
#191 = PLANE ( 'NONE',  #105 ) ;
#192 = PRODUCT_DEFINITION ( 'NEZNÁMÝ', '', #101, #179 ) ;
#193 = DIRECTION ( 'NONE',  ( -0.000000000000000000, -0.000000000000000000, -1.000000000000000000 ) ) ;
#194 = CIRCLE ( 'NONE', #8, 9.000000000000000000 ) ;
#195 = CC_DESIGN_APPROVAL ( #224, ( #101 ) ) ;
#196 = DIRECTION ( 'NONE',  ( 0.000000000000000000, 0.000000000000000000, 1.000000000000000000 ) ) ;
#197 = CARTESIAN_POINT ( 'NONE',  ( -6.250000000000000000, 0.000000000000000000, 315.0000000000000000 ) ) ;
#198 = EDGE_CURVE ( 'NONE', #86, #176, #73, .T. ) ;
#199 = APPLICATION_PROTOCOL_DEFINITION ( 'international standard', 'config_control_design', 1994, #226 ) ;
#200 = DIRECTION ( 'NONE',  ( 0.000000000000000000, 0.000000000000000000, 1.000000000000000000 ) ) ;
#201 = DIRECTION ( 'NONE',  ( -1.000000000000000000, 0.000000000000000000, 0.000000000000000000 ) ) ;
#202 = APPROVAL ( #85, 'NEURÈENÝ' ) ;
#203 = CARTESIAN_POINT ( 'NONE',  ( -9.000000000000000000, 0.000000000000000000, 7.000000000000000000 ) ) ;
#204 = CARTESIAN_POINT ( 'NONE',  ( -9.000000000000000000, 0.000000000000000000, 0.000000000000000000 ) ) ;
#205 = AXIS2_PLACEMENT_3D ( 'NONE', #106, #127, #23 ) ;
#206 = CALENDAR_DATE ( 2023, 13, 2 ) ;
#207 = ORIENTED_EDGE ( 'NONE', *, *, #51, .T. ) ;
#208 = APPROVAL_STATUS ( 'not_yet_approved' ) ;
#209 = ADVANCED_FACE ( 'NONE', ( #25 ), #26, .T. ) ;
#210 = APPLICATION_PROTOCOL_DEFINITION ( 'international standard', 'config_control_design', 1994, #230 ) ;
#211 = ORIENTED_EDGE ( 'NONE', *, *, #9, .T. ) ;
#212 = CALENDAR_DATE ( 2023, 13, 2 ) ;
#213 = FACE_OUTER_BOUND ( 'NONE', #115, .T. ) ;
#214 = CC_DESIGN_PERSON_AND_ORGANIZATION_ASSIGNMENT ( #82, #30, ( #42 ) ) ;
#215 = CARTESIAN_POINT ( 'NONE',  ( 0.000000000000000000, 0.000000000000000000, 7.000000000000000000 ) ) ;
#216 = CARTESIAN_POINT ( 'NONE',  ( 0.000000000000000000, 0.000000000000000000, 7.000000000000000000 ) ) ;
#217 = EDGE_LOOP ( 'NONE', ( #56, #229, #157, #54 ) ) ;
#218 = EDGE_CURVE ( 'NONE', #92, #170, #155, .T. ) ;
#219 = ORGANIZATION ( 'NEURÈENÝ', 'NEURÈENÝ', '' ) ;
#220 = FACE_OUTER_BOUND ( 'NONE', #99, .T. ) ;
#221 = MECHANICAL_CONTEXT ( 'NONE', #226, 'mechanical' ) ;
#222 = CARTESIAN_POINT ( 'NONE',  ( 0.000000000000000000, 0.000000000000000000, 315.0000000000000000 ) ) ;
#223 = ADVANCED_FACE ( 'NONE', ( #28 ), #183, .T. ) ;
#224 = APPROVAL ( #69, 'NEURÈENÝ' ) ;
#225 = DIRECTION ( 'NONE',  ( -1.000000000000000000, 0.000000000000000000, 0.000000000000000000 ) ) ;
#226 = APPLICATION_CONTEXT ( 'configuration controlled 3d designs of mechanical parts and assemblies' ) ;
#227 = CARTESIAN_POINT ( 'NONE',  ( 0.000000000000000000, 0.000000000000000000, 0.000000000000000000 ) ) ;
#228 = PERSON_AND_ORGANIZATION ( #130, #219 ) ;
#229 = ORIENTED_EDGE ( 'NONE', *, *, #110, .F. ) ;
#230 = APPLICATION_CONTEXT ( 'configuration controlled 3d designs of mechanical parts and assemblies' ) ;
#231 = DATE_TIME_ROLE ( 'classification_date' ) ;
#232 = DIRECTION ( 'NONE',  ( 1.000000000000000000, 0.000000000000000000, -0.000000000000000000 ) ) ;
#233 = ADVANCED_BREP_SHAPE_REPRESENTATION ( '90ab', ( #29, #128 ), #186 ) ;
#234 = DIRECTION ( 'NONE',  ( -0.000000000000000000, -0.000000000000000000, -1.000000000000000000 ) ) ;
#235 = AXIS2_PLACEMENT_3D ( 'NONE', #144, #146, #124 ) ;
#236 = FACE_OUTER_BOUND ( 'NONE', #57, .T. ) ;
#237 = EDGE_CURVE ( 'NONE', #176, #86, #20, .T. ) ;
#238 = EDGE_LOOP ( 'NONE', ( #250, #72, #156, #169 ) ) ;
#239 = LINE ( 'NONE', #153, #34 ) ;
#240 = CC_DESIGN_SECURITY_CLASSIFICATION ( #42, ( #101 ) ) ;
#241 = CARTESIAN_POINT ( 'NONE',  ( -9.000000000000000000, 0.000000000000000000, 7.000000000000000000 ) ) ;
#242 = AXIS2_PLACEMENT_3D ( 'NONE', #120, #35, #137 ) ;
#243 = LOCAL_TIME ( 11, 37, 43.00000000000000000, #188 ) ;
#244 = CARTESIAN_POINT ( 'NONE',  ( 0.000000000000000000, 0.000000000000000000, 7.000000000000000000 ) ) ;
#245 = EDGE_CURVE ( 'NONE', #37, #189, #177, .T. ) ;
#246 = APPROVAL_ROLE ( '' ) ;
#247 = PERSON_AND_ORGANIZATION ( #130, #219 ) ;
#248 = CALENDAR_DATE ( 2023, 13, 2 ) ;
#249 = AXIS2_PLACEMENT_3D ( 'NONE', #227, #104, #41 ) ;
#250 = ORIENTED_EDGE ( 'NONE', *, *, #218, .F. ) ;
#251 = DIRECTION ( 'NONE',  ( -1.000000000000000000, 0.000000000000000000, 0.000000000000000000 ) ) ;
#252 = AXIS2_PLACEMENT_3D ( 'NONE', #216, #196, #190 ) ;
#253 = DIRECTION ( 'NONE',  ( 1.000000000000000000, 0.000000000000000000, 0.000000000000000000 ) ) ;
#254 = ORIENTED_EDGE ( 'NONE', *, *, #152, .F. ) ;
#255 = DIRECTION ( 'NONE',  ( 1.000000000000000000, 0.000000000000000000, 0.000000000000000000 ) ) ;
ENDSEC;
END-ISO-10303-21;
