ISO-10303-21;
HEADER;
FILE_DESCRIPTION (( 'STEP AP203' ),
    '1' );
FILE_NAME ('50b7.STEP',
    '2023-02-13T09:45:08',
    ( '' ),
    ( '' ),
    'SwSTEP 2.0',
    'SolidWorks 2019',
    '' );
FILE_SCHEMA (( 'CONFIG_CONTROL_DESIGN' ));
ENDSEC;

DATA;
#1 = CALENDAR_DATE ( 2023, 13, 2 ) ;
#2 = CC_DESIGN_PERSON_AND_ORGANIZATION_ASSIGNMENT ( #235, #55, ( #97 ) ) ;
#3 = PLANE ( 'NONE',  #209 ) ;
#4 = VECTOR ( 'NONE', #41, 1000.000000000000000 ) ;
#5 = SECURITY_CLASSIFICATION_LEVEL ( 'unclassified' ) ;
#6 = ORIENTED_EDGE ( 'NONE', *, *, #52, .F. ) ;
#7 = DATE_AND_TIME ( #107, #108 ) ;
#8 = AXIS2_PLACEMENT_3D ( 'NONE', #233, #232, #128 ) ;
#9 = CARTESIAN_POINT ( 'NONE',  ( 0.000000000000000000, 0.000000000000000000, 0.000000000000000000 ) ) ;
#10 = APPROVAL ( #217, 'NEURÈENÝ' ) ;
#11 = DIRECTION ( 'NONE',  ( 1.000000000000000000, 0.000000000000000000, 0.000000000000000000 ) ) ;
#12 = CARTESIAN_POINT ( 'NONE',  ( 7.000000000000000888, 8.572527594031474176E-16, 7.000000000000000000 ) ) ;
#13 = CARTESIAN_POINT ( 'NONE',  ( -7.000000000000000888, 0.000000000000000000, 1200.000000000000000 ) ) ;
#14 = DIRECTION ( 'NONE',  ( -0.000000000000000000, -0.000000000000000000, -1.000000000000000000 ) ) ;
#15 = DIRECTION ( 'NONE',  ( -1.000000000000000000, 0.000000000000000000, 0.000000000000000000 ) ) ;
#16 = DIRECTION ( 'NONE',  ( 0.000000000000000000, 0.000000000000000000, 1.000000000000000000 ) ) ;
#17 = PRODUCT_RELATED_PRODUCT_CATEGORY ( 'detail', '', ( #123 ) ) ;
#18 = APPROVAL_ROLE ( '' ) ;
#19 = AXIS2_PLACEMENT_3D ( 'NONE', #38, #121, #15 ) ;
#20 = MANIFOLD_SOLID_BREP ( 'Pøidat vysunutím3', #54 ) ;
#21 = COORDINATED_UNIVERSAL_TIME_OFFSET ( 1, 0, .AHEAD. ) ;
#22 = ORIENTED_EDGE ( 'NONE', *, *, #195, .F. ) ;
#23 = APPROVAL_STATUS ( 'not_yet_approved' ) ;
#24 = ORIENTED_EDGE ( 'NONE', *, *, #147, .F. ) ;
#25 = CC_DESIGN_SECURITY_CLASSIFICATION ( #231, ( #126 ) ) ;
#26 = CC_DESIGN_DATE_AND_TIME_ASSIGNMENT ( #130, #216, ( #97 ) ) ;
#27 = DATE_AND_TIME ( #207, #87 ) ;
#28 = VERTEX_POINT ( 'NONE', #36 ) ;
#29 = ORIENTED_EDGE ( 'NONE', *, *, #52, .T. ) ;
#30 = DIRECTION ( 'NONE',  ( 1.000000000000000000, 0.000000000000000000, 0.000000000000000000 ) ) ;
#31 = DIRECTION ( 'NONE',  ( -0.000000000000000000, -0.000000000000000000, -1.000000000000000000 ) ) ;
#32 = APPLICATION_CONTEXT ( 'configuration controlled 3d designs of mechanical parts and assemblies' ) ;
#33 = LINE ( 'NONE', #214, #206 ) ;
#34 = CARTESIAN_POINT ( 'NONE',  ( 0.000000000000000000, 0.000000000000000000, 7.000000000000000000 ) ) ;
#35 = CC_DESIGN_PERSON_AND_ORGANIZATION_ASSIGNMENT ( #78, #174, ( #123 ) ) ;
#36 = CARTESIAN_POINT ( 'NONE',  ( -11.00000000000000000, 0.000000000000000000, 0.000000000000000000 ) ) ;
#37 = DIRECTION ( 'NONE',  ( 1.000000000000000000, 0.000000000000000000, 0.000000000000000000 ) ) ;
#38 = CARTESIAN_POINT ( 'NONE',  ( 0.000000000000000000, 0.000000000000000000, 7.000000000000000000 ) ) ;
#39 = CARTESIAN_POINT ( 'NONE',  ( 0.000000000000000000, 0.000000000000000000, 1200.000000000000000 ) ) ;
#40 = PERSON ( 'NEURÈENÝ', 'NEURÈENÝ', 'NEURÈENÝ', ('NEURÈENÝ'), ('NEURÈENÝ'), ('NEURÈENÝ') ) ;
#41 = DIRECTION ( 'NONE',  ( -0.000000000000000000, -0.000000000000000000, -1.000000000000000000 ) ) ;
#42 = APPROVAL_DATE_TIME ( #27, #151 ) ;
#43 = DATE_AND_TIME ( #135, #248 ) ;
#44 = EDGE_LOOP ( 'NONE', ( #105, #185 ) ) ;
#45 = EDGE_LOOP ( 'NONE', ( #202, #163 ) ) ;
#46 = CC_DESIGN_APPROVAL ( #10, ( #97 ) ) ;
#47 = DIRECTION ( 'NONE',  ( -0.000000000000000000, -0.000000000000000000, -1.000000000000000000 ) ) ;
#48 = CARTESIAN_POINT ( 'NONE',  ( 0.000000000000000000, 0.000000000000000000, 1200.000000000000000 ) ) ;
#49 = AXIS2_PLACEMENT_3D ( 'NONE', #53, #191, #11 ) ;
#50 = CARTESIAN_POINT ( 'NONE',  ( -7.000000000000000888, 0.000000000000000000, 7.000000000000000000 ) ) ;
#51 = ORIENTED_EDGE ( 'NONE', *, *, #169, .F. ) ;
#52 = EDGE_CURVE ( 'NONE', #156, #67, #33, .T. ) ;
#53 = CARTESIAN_POINT ( 'NONE',  ( 0.000000000000000000, 0.000000000000000000, 0.000000000000000000 ) ) ;
#54 = CLOSED_SHELL ( 'NONE', ( #139, #56, #227, #114, #61, #70, #221 ) ) ;
#55 = PERSON_AND_ORGANIZATION_ROLE ( 'creator' ) ;
#56 = ADVANCED_FACE ( 'NONE', ( #193 ), #212, .T. ) ;
#57 = APPLICATION_PROTOCOL_DEFINITION ( 'international standard', 'config_control_design', 1994, #32 ) ;
#58 = CARTESIAN_POINT ( 'NONE',  ( -11.00000000000000000, 0.000000000000000000, 7.000000000000000000 ) ) ;
#59 = FACE_OUTER_BOUND ( 'NONE', #244, .T. ) ;
#60 =( NAMED_UNIT ( * ) PLANE_ANGLE_UNIT ( ) SI_UNIT ( $, .RADIAN. ) );
#61 = ADVANCED_FACE ( 'NONE', ( #190 ), #170, .F. ) ;
#62 = PERSON_AND_ORGANIZATION ( #40, #136 ) ;
#63 = EDGE_LOOP ( 'NONE', ( #225, #160 ) ) ;
#64 = CC_DESIGN_PERSON_AND_ORGANIZATION_ASSIGNMENT ( #65, #181, ( #126 ) ) ;
#65 = PERSON_AND_ORGANIZATION ( #40, #136 ) ;
#66 = VERTEX_POINT ( 'NONE', #50 ) ;
#67 = VERTEX_POINT ( 'NONE', #12 ) ;
#68 = ORIENTED_EDGE ( 'NONE', *, *, #141, .T. ) ;
#69 = UNCERTAINTY_MEASURE_WITH_UNIT (LENGTH_MEASURE( 1.000000000000000082E-05 ), #236, 'distance_accuracy_value', 'NONE');
#70 = ADVANCED_FACE ( 'NONE', ( #94 ), #245, .T. ) ;
#71 = FACE_OUTER_BOUND ( 'NONE', #63, .T. ) ;
#72 = FACE_OUTER_BOUND ( 'NONE', #187, .T. ) ;
#73 = APPROVAL_PERSON_ORGANIZATION ( #131, #151, #183 ) ;
#74 = ORIENTED_EDGE ( 'NONE', *, *, #110, .T. ) ;
#75 = DIRECTION ( 'NONE',  ( -0.000000000000000000, -0.000000000000000000, -1.000000000000000000 ) ) ;
#76 = CARTESIAN_POINT ( 'NONE',  ( 11.00000000000000000, 1.347111479062088405E-15, 7.000000000000000000 ) ) ;
#77 = AXIS2_PLACEMENT_3D ( 'NONE', #211, #171, #229 ) ;
#78 = PERSON_AND_ORGANIZATION ( #40, #136 ) ;
#79 = APPROVAL_DATE_TIME ( #177, #10 ) ;
#80 =( NAMED_UNIT ( * ) SI_UNIT ( $, .STERADIAN. ) SOLID_ANGLE_UNIT ( ) );
#81 = MECHANICAL_CONTEXT ( 'NONE', #32, 'mechanical' ) ;
#82 = CC_DESIGN_PERSON_AND_ORGANIZATION_ASSIGNMENT ( #62, #155, ( #126 ) ) ;
#83 = APPROVAL_STATUS ( 'not_yet_approved' ) ;
#84 = EDGE_CURVE ( 'NONE', #28, #180, #106, .T. ) ;
#85 = PRODUCT_DEFINITION_SHAPE ( 'NONE', 'NONE',  #97 ) ;
#86 = DATE_TIME_ROLE ( 'classification_date' ) ;
#87 = LOCAL_TIME ( 10, 45, 8.000000000000000000, #111 ) ;
#88 = ORIENTED_EDGE ( 'NONE', *, *, #141, .F. ) ;
#89 = APPROVAL_ROLE ( '' ) ;
#90 = VERTEX_POINT ( 'NONE', #208 ) ;
#91 = CIRCLE ( 'NONE', #149, 7.000000000000000888 ) ;
#92 = DIRECTION ( 'NONE',  ( 0.000000000000000000, 0.000000000000000000, 1.000000000000000000 ) ) ;
#93 = CARTESIAN_POINT ( 'NONE',  ( -11.00000000000000000, 0.000000000000000000, 7.000000000000000000 ) ) ;
#94 = FACE_OUTER_BOUND ( 'NONE', #104, .T. ) ;
#95 = DIRECTION ( 'NONE',  ( -0.000000000000000000, -0.000000000000000000, -1.000000000000000000 ) ) ;
#96 = CARTESIAN_POINT ( 'NONE',  ( 0.000000000000000000, 0.000000000000000000, 0.000000000000000000 ) ) ;
#97 = PRODUCT_DEFINITION ( 'NEZNÁMÝ', '', #126, #246 ) ;
#98 =( GEOMETRIC_REPRESENTATION_CONTEXT ( 3 ) GLOBAL_UNCERTAINTY_ASSIGNED_CONTEXT ( ( #69 ) ) GLOBAL_UNIT_ASSIGNED_CONTEXT ( ( #236, #60, #80 ) ) REPRESENTATION_CONTEXT ( 'NONE', 'WORKASPACE' ) );
#99 = DIRECTION ( 'NONE',  ( 1.000000000000000000, 0.000000000000000000, 0.000000000000000000 ) ) ;
#100 = DIRECTION ( 'NONE',  ( 0.000000000000000000, 0.000000000000000000, 1.000000000000000000 ) ) ;
#101 = EDGE_CURVE ( 'NONE', #67, #66, #91, .T. ) ;
#102 = DIRECTION ( 'NONE',  ( 0.000000000000000000, 0.000000000000000000, 1.000000000000000000 ) ) ;
#103 = COORDINATED_UNIVERSAL_TIME_OFFSET ( 1, 0, .AHEAD. ) ;
#104 = EDGE_LOOP ( 'NONE', ( #6, #24, #215, #116 ) ) ;
#105 = ORIENTED_EDGE ( 'NONE', *, *, #147, .T. ) ;
#106 = CIRCLE ( 'NONE', #157, 11.00000000000000000 ) ;
#107 = CALENDAR_DATE ( 2023, 13, 2 ) ;
#108 = LOCAL_TIME ( 10, 45, 8.000000000000000000, #179 ) ;
#109 = EDGE_LOOP ( 'NONE', ( #22, #74, #68, #226 ) ) ;
#110 = EDGE_CURVE ( 'NONE', #90, #180, #112, .T. ) ;
#111 = COORDINATED_UNIVERSAL_TIME_OFFSET ( 1, 0, .AHEAD. ) ;
#112 = LINE ( 'NONE', #76, #189 ) ;
#113 = DIRECTION ( 'NONE',  ( -1.000000000000000000, 0.000000000000000000, 0.000000000000000000 ) ) ;
#114 = ADVANCED_FACE ( 'NONE', ( #165, #71 ), #146, .T. ) ;
#115 = CARTESIAN_POINT ( 'NONE',  ( 0.000000000000000000, 0.000000000000000000, 1200.000000000000000 ) ) ;
#116 = ORIENTED_EDGE ( 'NONE', *, *, #166, .T. ) ;
#117 = DIRECTION ( 'NONE',  ( -1.000000000000000000, 0.000000000000000000, 0.000000000000000000 ) ) ;
#118 = DIRECTION ( 'NONE',  ( 0.000000000000000000, 0.000000000000000000, 1.000000000000000000 ) ) ;
#119 = APPROVAL_PERSON_ORGANIZATION ( #204, #224, #89 ) ;
#120 = FACE_OUTER_BOUND ( 'NONE', #44, .T. ) ;
#121 = DIRECTION ( 'NONE',  ( -0.000000000000000000, -0.000000000000000000, -1.000000000000000000 ) ) ;
#122 = ORIENTED_EDGE ( 'NONE', *, *, #101, .T. ) ;
#123 = PRODUCT ( '50b7', '50b7', '', ( #81 ) ) ;
#124 = EDGE_CURVE ( 'NONE', #228, #66, #251, .T. ) ;
#125 = CARTESIAN_POINT ( 'NONE',  ( 0.000000000000000000, 0.000000000000000000, 7.000000000000000000 ) ) ;
#127 = DIRECTION ( 'NONE',  ( 0.000000000000000000, 0.000000000000000000, 1.000000000000000000 ) ) ;
#126 = PRODUCT_DEFINITION_FORMATION_WITH_SPECIFIED_SOURCE ( 'LIBOVOLNÝ', '', #123, .NOT_KNOWN. ) ;
#128 = DIRECTION ( 'NONE',  ( 1.000000000000000000, 0.000000000000000000, 0.000000000000000000 ) ) ;
#129 = DIRECTION ( 'NONE',  ( 1.000000000000000000, 0.000000000000000000, 0.000000000000000000 ) ) ;
#130 = DATE_AND_TIME ( #237, #240 ) ;
#131 = PERSON_AND_ORGANIZATION ( #40, #136 ) ;
#132 = CC_DESIGN_APPROVAL ( #224, ( #231 ) ) ;
#133 = CARTESIAN_POINT ( 'NONE',  ( 0.000000000000000000, 0.000000000000000000, 7.000000000000000000 ) ) ;
#134 = CYLINDRICAL_SURFACE ( 'NONE', #19, 11.00000000000000000 ) ;
#135 = CALENDAR_DATE ( 2023, 13, 2 ) ;
#136 = ORGANIZATION ( 'NEURÈENÝ', 'NEURÈENÝ', '' ) ;
#137 = AXIS2_PLACEMENT_3D ( 'NONE', #249, #47, #113 ) ;
#138 = ORIENTED_EDGE ( 'NONE', *, *, #84, .T. ) ;
#139 = ADVANCED_FACE ( 'NONE', ( #72 ), #148, .T. ) ;
#140 = ORIENTED_EDGE ( 'NONE', *, *, #124, .F. ) ;
#141 = EDGE_CURVE ( 'NONE', #180, #28, #254, .T. ) ;
#142 = VERTEX_POINT ( 'NONE', #93 ) ;
#144 = CARTESIAN_POINT ( 'NONE',  ( 7.000000000000000888, 8.572527594031474176E-16, 1200.000000000000000 ) ) ;
#143 = CIRCLE ( 'NONE', #176, 7.000000000000000888 ) ;
#145 = DIRECTION ( 'NONE',  ( -0.000000000000000000, -0.000000000000000000, -1.000000000000000000 ) ) ;
#146 = PLANE ( 'NONE',  #77 ) ;
#147 = EDGE_CURVE ( 'NONE', #228, #156, #196, .T. ) ;
#148 = CYLINDRICAL_SURFACE ( 'NONE', #137, 7.000000000000000888 ) ;
#149 = AXIS2_PLACEMENT_3D ( 'NONE', #234, #127, #30 ) ;
#150 = DIRECTION ( 'NONE',  ( 1.000000000000000000, 0.000000000000000000, 0.000000000000000000 ) ) ;
#151 = APPROVAL ( #23, 'NEURÈENÝ' ) ;
#152 = COORDINATED_UNIVERSAL_TIME_OFFSET ( 1, 0, .AHEAD. ) ;
#153 = CARTESIAN_POINT ( 'NONE',  ( 0.000000000000000000, 0.000000000000000000, 0.000000000000000000 ) ) ;
#154 = DIRECTION ( 'NONE',  ( 1.000000000000000000, 0.000000000000000000, 0.000000000000000000 ) ) ;
#155 = PERSON_AND_ORGANIZATION_ROLE ( 'design_supplier' ) ;
#156 = VERTEX_POINT ( 'NONE', #144 ) ;
#157 = AXIS2_PLACEMENT_3D ( 'NONE', #96, #92, #129 ) ;
#158 = AXIS2_PLACEMENT_3D ( 'NONE', #34, #220, #99 ) ;
#159 = PERSON_AND_ORGANIZATION ( #40, #136 ) ;
#160 = ORIENTED_EDGE ( 'NONE', *, *, #195, .T. ) ;
#161 = ORIENTED_EDGE ( 'NONE', *, *, #110, .F. ) ;
#162 = APPROVAL_DATE_TIME ( #7, #224 ) ;
#163 = ORIENTED_EDGE ( 'NONE', *, *, #101, .F. ) ;
#164 = CIRCLE ( 'NONE', #182, 11.00000000000000000 ) ;
#165 = FACE_BOUND ( 'NONE', #45, .T. ) ;
#166 = EDGE_CURVE ( 'NONE', #66, #67, #219, .T. ) ;
#167 = DIRECTION ( 'NONE',  ( 0.000000000000000000, 0.000000000000000000, 1.000000000000000000 ) ) ;
#168 = EDGE_LOOP ( 'NONE', ( #241, #88 ) ) ;
#169 = EDGE_CURVE ( 'NONE', #142, #90, #201, .T. ) ;
#170 = PLANE ( 'NONE',  #200 ) ;
#171 = DIRECTION ( 'NONE',  ( 0.000000000000000000, 0.000000000000000000, 1.000000000000000000 ) ) ;
#172 = APPROVAL_PERSON_ORGANIZATION ( #222, #10, #18 ) ;
#173 = ADVANCED_BREP_SHAPE_REPRESENTATION ( '50b7', ( #20, #253 ), #98 ) ;
#174 = PERSON_AND_ORGANIZATION_ROLE ( 'design_owner' ) ;
#175 = CARTESIAN_POINT ( 'NONE',  ( 11.00000000000000000, 1.347111479062088405E-15, 0.000000000000000000 ) ) ;
#176 = AXIS2_PLACEMENT_3D ( 'NONE', #39, #118, #150 ) ;
#177 = DATE_AND_TIME ( #1, #197 ) ;
#178 = EDGE_CURVE ( 'NONE', #142, #28, #238, .T. ) ;
#179 = COORDINATED_UNIVERSAL_TIME_OFFSET ( 1, 0, .AHEAD. ) ;
#180 = VERTEX_POINT ( 'NONE', #175 ) ;
#181 = PERSON_AND_ORGANIZATION_ROLE ( 'creator' ) ;
#182 = AXIS2_PLACEMENT_3D ( 'NONE', #133, #16, #37 ) ;
#183 = APPROVAL_ROLE ( '' ) ;
#184 = ORIENTED_EDGE ( 'NONE', *, *, #203, .F. ) ;
#185 = ORIENTED_EDGE ( 'NONE', *, *, #203, .T. ) ;
#186 = PERSON_AND_ORGANIZATION_ROLE ( 'classification_officer' ) ;
#187 = EDGE_LOOP ( 'NONE', ( #184, #29, #122, #140 ) ) ;
#188 = APPLICATION_CONTEXT ( 'configuration controlled 3d designs of mechanical parts and assemblies' ) ;
#189 = VECTOR ( 'NONE', #75, 1000.000000000000000 ) ;
#190 = FACE_OUTER_BOUND ( 'NONE', #168, .T. ) ;
#191 = DIRECTION ( 'NONE',  ( 0.000000000000000000, 0.000000000000000000, 1.000000000000000000 ) ) ;
#192 = DIRECTION ( 'NONE',  ( 0.000000000000000000, 0.000000000000000000, 1.000000000000000000 ) ) ;
#193 = FACE_OUTER_BOUND ( 'NONE', #109, .T. ) ;
#194 = DIRECTION ( 'NONE',  ( -1.000000000000000000, 0.000000000000000000, 0.000000000000000000 ) ) ;
#195 = EDGE_CURVE ( 'NONE', #90, #142, #164, .T. ) ;
#196 = CIRCLE ( 'NONE', #230, 7.000000000000000888 ) ;
#197 = LOCAL_TIME ( 10, 45, 8.000000000000000000, #103 ) ;
#198 = CARTESIAN_POINT ( 'NONE',  ( -7.000000000000000888, 0.000000000000000000, 1200.000000000000000 ) ) ;
#199 = APPLICATION_PROTOCOL_DEFINITION ( 'international standard', 'config_control_design', 1994, #188 ) ;
#200 = AXIS2_PLACEMENT_3D ( 'NONE', #9, #192, #250 ) ;
#201 = CIRCLE ( 'NONE', #158, 11.00000000000000000 ) ;
#202 = ORIENTED_EDGE ( 'NONE', *, *, #166, .F. ) ;
#203 = EDGE_CURVE ( 'NONE', #156, #228, #143, .T. ) ;
#204 = PERSON_AND_ORGANIZATION ( #40, #136 ) ;
#205 = ORIENTED_EDGE ( 'NONE', *, *, #178, .T. ) ;
#206 = VECTOR ( 'NONE', #145, 1000.000000000000000 ) ;
#207 = CALENDAR_DATE ( 2023, 13, 2 ) ;
#208 = CARTESIAN_POINT ( 'NONE',  ( 11.00000000000000000, 1.347111479062088405E-15, 7.000000000000000000 ) ) ;
#209 = AXIS2_PLACEMENT_3D ( 'NONE', #255, #100, #239 ) ;
#210 = AXIS2_PLACEMENT_3D ( 'NONE', #125, #95, #117 ) ;
#211 = CARTESIAN_POINT ( 'NONE',  ( 0.000000000000000000, 0.000000000000000000, 7.000000000000000000 ) ) ;
#212 = CYLINDRICAL_SURFACE ( 'NONE', #210, 11.00000000000000000 ) ;
#213 = CC_DESIGN_PERSON_AND_ORGANIZATION_ASSIGNMENT ( #159, #186, ( #231 ) ) ;
#214 = CARTESIAN_POINT ( 'NONE',  ( 7.000000000000000888, 8.572527594031474176E-16, 1200.000000000000000 ) ) ;
#215 = ORIENTED_EDGE ( 'NONE', *, *, #124, .T. ) ;
#216 = DATE_TIME_ROLE ( 'creation_date' ) ;
#217 = APPROVAL_STATUS ( 'not_yet_approved' ) ;
#218 = AXIS2_PLACEMENT_3D ( 'NONE', #48, #14, #194 ) ;
#219 = CIRCLE ( 'NONE', #8, 7.000000000000000888 ) ;
#220 = DIRECTION ( 'NONE',  ( 0.000000000000000000, 0.000000000000000000, 1.000000000000000000 ) ) ;
#221 = ADVANCED_FACE ( 'NONE', ( #120 ), #3, .T. ) ;
#222 = PERSON_AND_ORGANIZATION ( #40, #136 ) ;
#223 = VECTOR ( 'NONE', #31, 1000.000000000000000 ) ;
#224 = APPROVAL ( #83, 'NEURÈENÝ' ) ;
#225 = ORIENTED_EDGE ( 'NONE', *, *, #169, .T. ) ;
#226 = ORIENTED_EDGE ( 'NONE', *, *, #178, .F. ) ;
#227 = ADVANCED_FACE ( 'NONE', ( #59 ), #134, .T. ) ;
#228 = VERTEX_POINT ( 'NONE', #198 ) ;
#229 = DIRECTION ( 'NONE',  ( 1.000000000000000000, 0.000000000000000000, -0.000000000000000000 ) ) ;
#230 = AXIS2_PLACEMENT_3D ( 'NONE', #115, #167, #247 ) ;
#231 = SECURITY_CLASSIFICATION ( '', '', #5 ) ;
#232 = DIRECTION ( 'NONE',  ( 0.000000000000000000, 0.000000000000000000, 1.000000000000000000 ) ) ;
#233 = CARTESIAN_POINT ( 'NONE',  ( 0.000000000000000000, 0.000000000000000000, 7.000000000000000000 ) ) ;
#234 = CARTESIAN_POINT ( 'NONE',  ( 0.000000000000000000, 0.000000000000000000, 7.000000000000000000 ) ) ;
#235 = PERSON_AND_ORGANIZATION ( #40, #136 ) ;
#236 =( LENGTH_UNIT ( ) NAMED_UNIT ( * ) SI_UNIT ( .MILLI., .METRE. ) );
#237 = CALENDAR_DATE ( 2023, 13, 2 ) ;
#238 = LINE ( 'NONE', #58, #4 ) ;
#239 = DIRECTION ( 'NONE',  ( 1.000000000000000000, 0.000000000000000000, -0.000000000000000000 ) ) ;
#240 = LOCAL_TIME ( 10, 45, 8.000000000000000000, #152 ) ;
#241 = ORIENTED_EDGE ( 'NONE', *, *, #84, .F. ) ;
#242 = SHAPE_DEFINITION_REPRESENTATION ( #85, #173 ) ;
#243 = CC_DESIGN_APPROVAL ( #151, ( #126 ) ) ;
#244 = EDGE_LOOP ( 'NONE', ( #161, #51, #205, #138 ) ) ;
#245 = CYLINDRICAL_SURFACE ( 'NONE', #218, 7.000000000000000888 ) ;
#246 = DESIGN_CONTEXT ( 'detailed design', #188, 'design' ) ;
#247 = DIRECTION ( 'NONE',  ( 1.000000000000000000, 0.000000000000000000, 0.000000000000000000 ) ) ;
#248 = LOCAL_TIME ( 10, 45, 8.000000000000000000, #21 ) ;
#249 = CARTESIAN_POINT ( 'NONE',  ( 0.000000000000000000, 0.000000000000000000, 1200.000000000000000 ) ) ;
#250 = DIRECTION ( 'NONE',  ( 1.000000000000000000, 0.000000000000000000, -0.000000000000000000 ) ) ;
#251 = LINE ( 'NONE', #13, #223 ) ;
#252 = CC_DESIGN_DATE_AND_TIME_ASSIGNMENT ( #43, #86, ( #231 ) ) ;
#253 = AXIS2_PLACEMENT_3D ( 'NONE', #153, #102, #154 ) ;
#254 = CIRCLE ( 'NONE', #49, 11.00000000000000000 ) ;
#255 = CARTESIAN_POINT ( 'NONE',  ( 0.000000000000000000, 0.000000000000000000, 1200.000000000000000 ) ) ;
ENDSEC;
END-ISO-10303-21;
