ISO-10303-21;
HEADER;
FILE_DESCRIPTION (( 'STEP AP203' ),
    '1' );
FILE_NAME ('9d9d.STEP',
    '2023-02-13T14:18:58',
    ( '' ),
    ( '' ),
    'SwSTEP 2.0',
    'SolidWorks 2019',
    '' );
FILE_SCHEMA (( 'CONFIG_CONTROL_DESIGN' ));
ENDSEC;

DATA;
#1 = LINE ( 'NONE', #181, #141 ) ;
#2 = LOCAL_TIME ( 15, 18, 58.00000000000000000, #230 ) ;
#3 = DIRECTION ( 'NONE',  ( 0.000000000000000000, 0.000000000000000000, 1.000000000000000000 ) ) ;
#4 = PERSON_AND_ORGANIZATION_ROLE ( 'creator' ) ;
#5 = DIRECTION ( 'NONE',  ( 1.000000000000000000, 0.000000000000000000, 0.000000000000000000 ) ) ;
#6 = DIRECTION ( 'NONE',  ( -0.000000000000000000, -0.000000000000000000, -1.000000000000000000 ) ) ;
#7 = DIRECTION ( 'NONE',  ( 1.000000000000000000, 0.000000000000000000, 0.000000000000000000 ) ) ;
#8 = AXIS2_PLACEMENT_3D ( 'NONE', #143, #210, #84 ) ;
#9 =( NAMED_UNIT ( * ) PLANE_ANGLE_UNIT ( ) SI_UNIT ( $, .RADIAN. ) );
#10 = PERSON_AND_ORGANIZATION_ROLE ( 'design_owner' ) ;
#11 = APPROVAL ( #248, 'NEURÈENÝ' ) ;
#12 = FACE_OUTER_BOUND ( 'NONE', #195, .T. ) ;
#13 = CARTESIAN_POINT ( 'NONE',  ( 7.000000000000000000, 8.572527594031471218E-16, 6.500000000000000000 ) ) ;
#14 = FACE_OUTER_BOUND ( 'NONE', #187, .T. ) ;
#15 = DESIGN_CONTEXT ( 'detailed design', #73, 'design' ) ;
#16 = DATE_TIME_ROLE ( 'creation_date' ) ;
#17 = ADVANCED_FACE ( 'NONE', ( #90 ), #236, .T. ) ;
#18 = ORGANIZATION ( 'NEURÈENÝ', 'NEURÈENÝ', '' ) ;
#19 = ORIENTED_EDGE ( 'NONE', *, *, #60, .T. ) ;
#20 = PRODUCT_RELATED_PRODUCT_CATEGORY ( 'detail', '', ( #49 ) ) ;
#21 = APPROVAL_DATE_TIME ( #131, #63 ) ;
#22 = COORDINATED_UNIVERSAL_TIME_OFFSET ( 1, 0, .AHEAD. ) ;
#23 = CC_DESIGN_PERSON_AND_ORGANIZATION_ASSIGNMENT ( #125, #182, ( #153 ) ) ;
#24 = CARTESIAN_POINT ( 'NONE',  ( 0.000000000000000000, 0.000000000000000000, 400.0000000000000000 ) ) ;
#25 = CC_DESIGN_SECURITY_CLASSIFICATION ( #134, ( #222 ) ) ;
#26 = LINE ( 'NONE', #158, #94 ) ;
#27 = FACE_OUTER_BOUND ( 'NONE', #237, .T. ) ;
#28 = PLANE ( 'NONE',  #234 ) ;
#29 = DIRECTION ( 'NONE',  ( 1.000000000000000000, 0.000000000000000000, -0.000000000000000000 ) ) ;
#30 = EDGE_LOOP ( 'NONE', ( #132, #112, #170, #255 ) ) ;
#31 = COORDINATED_UNIVERSAL_TIME_OFFSET ( 1, 0, .AHEAD. ) ;
#32 = CIRCLE ( 'NONE', #159, 7.000000000000000000 ) ;
#33 = APPLICATION_PROTOCOL_DEFINITION ( 'international standard', 'config_control_design', 1994, #73 ) ;
#34 = CARTESIAN_POINT ( 'NONE',  ( 0.000000000000000000, 0.000000000000000000, 0.000000000000000000 ) ) ;
#35 = PERSON_AND_ORGANIZATION ( #197, #18 ) ;
#36 = ORIENTED_EDGE ( 'NONE', *, *, #251, .T. ) ;
#37 = CC_DESIGN_DATE_AND_TIME_ASSIGNMENT ( #39, #92, ( #134 ) ) ;
#38 = ORIENTED_EDGE ( 'NONE', *, *, #104, .T. ) ;
#39 = DATE_AND_TIME ( #152, #2 ) ;
#40 = AXIS2_PLACEMENT_3D ( 'NONE', #108, #146, #228 ) ;
#41 = ADVANCED_FACE ( 'NONE', ( #199, #27 ), #28, .T. ) ;
#42 = ORIENTED_EDGE ( 'NONE', *, *, #200, .F. ) ;
#43 = DIRECTION ( 'NONE',  ( -0.000000000000000000, -0.000000000000000000, -1.000000000000000000 ) ) ;
#44 = DIRECTION ( 'NONE',  ( 0.000000000000000000, 0.000000000000000000, 1.000000000000000000 ) ) ;
#45 = CIRCLE ( 'NONE', #183, 4.000000000000000000 ) ;
#46 = MANIFOLD_SOLID_BREP ( 'Pøidat vysunutím3', #99 ) ;
#47 = CARTESIAN_POINT ( 'NONE',  ( 0.000000000000000000, 0.000000000000000000, 0.000000000000000000 ) ) ;
#48 = DIRECTION ( 'NONE',  ( 0.000000000000000000, 0.000000000000000000, 1.000000000000000000 ) ) ;
#49 = PRODUCT ( '9d9d', '9d9d', '', ( #123 ) ) ;
#50 = CC_DESIGN_PERSON_AND_ORGANIZATION_ASSIGNMENT ( #110, #4, ( #222 ) ) ;
#51 = ORIENTED_EDGE ( 'NONE', *, *, #140, .T. ) ;
#52 = APPROVAL_DATE_TIME ( #184, #11 ) ;
#53 = CIRCLE ( 'NONE', #8, 4.000000000000000000 ) ;
#54 =( GEOMETRIC_REPRESENTATION_CONTEXT ( 3 ) GLOBAL_UNCERTAINTY_ASSIGNED_CONTEXT ( ( #226 ) ) GLOBAL_UNIT_ASSIGNED_CONTEXT ( ( #250, #9, #127 ) ) REPRESENTATION_CONTEXT ( 'NONE', 'WORKASPACE' ) );
#55 = DIRECTION ( 'NONE',  ( 1.000000000000000000, 0.000000000000000000, 0.000000000000000000 ) ) ;
#56 = DIRECTION ( 'NONE',  ( -0.000000000000000000, -0.000000000000000000, -1.000000000000000000 ) ) ;
#57 = SHAPE_DEFINITION_REPRESENTATION ( #167, #79 ) ;
#58 = ORIENTED_EDGE ( 'NONE', *, *, #93, .F. ) ;
#59 = CC_DESIGN_PERSON_AND_ORGANIZATION_ASSIGNMENT ( #35, #193, ( #134 ) ) ;
#60 = EDGE_CURVE ( 'NONE', #76, #133, #150, .T. ) ;
#61 = LOCAL_TIME ( 15, 18, 58.00000000000000000, #119 ) ;
#62 = APPROVAL_STATUS ( 'not_yet_approved' ) ;
#63 = APPROVAL ( #62, 'NEURÈENÝ' ) ;
#64 = CARTESIAN_POINT ( 'NONE',  ( 7.000000000000000000, 8.572527594031471218E-16, 0.000000000000000000 ) ) ;
#65 = EDGE_CURVE ( 'NONE', #76, #254, #1, .T. ) ;
#66 = VECTOR ( 'NONE', #155, 1000.000000000000000 ) ;
#67 = APPROVAL_ROLE ( '' ) ;
#68 = CALENDAR_DATE ( 2023, 13, 2 ) ;
#69 = VERTEX_POINT ( 'NONE', #118 ) ;
#70 = APPROVAL_STATUS ( 'not_yet_approved' ) ;
#71 = VECTOR ( 'NONE', #56, 1000.000000000000000 ) ;
#72 = PERSON_AND_ORGANIZATION ( #197, #18 ) ;
#73 = APPLICATION_CONTEXT ( 'configuration controlled 3d designs of mechanical parts and assemblies' ) ;
#74 = EDGE_LOOP ( 'NONE', ( #211, #75 ) ) ;
#75 = ORIENTED_EDGE ( 'NONE', *, *, #160, .F. ) ;
#76 = VERTEX_POINT ( 'NONE', #121 ) ;
#77 = CALENDAR_DATE ( 2023, 13, 2 ) ;
#78 = ORIENTED_EDGE ( 'NONE', *, *, #200, .T. ) ;
#79 = ADVANCED_BREP_SHAPE_REPRESENTATION ( '9d9d', ( #46, #128 ), #54 ) ;
#80 = APPROVAL_PERSON_ORGANIZATION ( #88, #137, #115 ) ;
#81 = DIRECTION ( 'NONE',  ( -1.000000000000000000, 0.000000000000000000, 0.000000000000000000 ) ) ;
#82 = DIRECTION ( 'NONE',  ( -0.000000000000000000, -0.000000000000000000, -1.000000000000000000 ) ) ;
#83 = FACE_OUTER_BOUND ( 'NONE', #191, .T. ) ;
#84 = DIRECTION ( 'NONE',  ( 1.000000000000000000, 0.000000000000000000, 0.000000000000000000 ) ) ;
#85 = CYLINDRICAL_SURFACE ( 'NONE', #154, 7.000000000000000000 ) ;
#86 = LOCAL_TIME ( 15, 18, 58.00000000000000000, #22 ) ;
#87 = COORDINATED_UNIVERSAL_TIME_OFFSET ( 1, 0, .AHEAD. ) ;
#88 = PERSON_AND_ORGANIZATION ( #197, #18 ) ;
#89 = DIRECTION ( 'NONE',  ( 0.000000000000000000, 0.000000000000000000, 1.000000000000000000 ) ) ;
#90 = FACE_OUTER_BOUND ( 'NONE', #229, .T. ) ;
#91 = ORIENTED_EDGE ( 'NONE', *, *, #157, .T. ) ;
#92 = DATE_TIME_ROLE ( 'classification_date' ) ;
#93 = EDGE_CURVE ( 'NONE', #69, #172, #196, .T. ) ;
#94 = VECTOR ( 'NONE', #82, 1000.000000000000000 ) ;
#95 = APPROVAL_PERSON_ORGANIZATION ( #72, #11, #67 ) ;
#96 = PERSON_AND_ORGANIZATION ( #197, #18 ) ;
#97 = DIRECTION ( 'NONE',  ( -0.000000000000000000, -0.000000000000000000, -1.000000000000000000 ) ) ;
#98 = CARTESIAN_POINT ( 'NONE',  ( 0.000000000000000000, 0.000000000000000000, 6.500000000000000000 ) ) ;
#99 = CLOSED_SHELL ( 'NONE', ( #113, #189, #17, #41, #215, #212, #147 ) ) ;
#100 = DIRECTION ( 'NONE',  ( 1.000000000000000000, 0.000000000000000000, -0.000000000000000000 ) ) ;
#101 = DIRECTION ( 'NONE',  ( 1.000000000000000000, 0.000000000000000000, 0.000000000000000000 ) ) ;
#102 = CARTESIAN_POINT ( 'NONE',  ( -7.000000000000000000, 0.000000000000000000, 0.000000000000000000 ) ) ;
#103 = PERSON_AND_ORGANIZATION ( #197, #18 ) ;
#104 = EDGE_CURVE ( 'NONE', #133, #213, #26, .T. ) ;
#105 = CARTESIAN_POINT ( 'NONE',  ( -4.000000000000000000, 0.000000000000000000, 400.0000000000000000 ) ) ;
#106 = CIRCLE ( 'NONE', #180, 4.000000000000000000 ) ;
#107 = DATE_AND_TIME ( #68, #247 ) ;
#108 = CARTESIAN_POINT ( 'NONE',  ( 0.000000000000000000, 0.000000000000000000, 400.0000000000000000 ) ) ;
#109 = DIRECTION ( 'NONE',  ( 0.000000000000000000, 0.000000000000000000, 1.000000000000000000 ) ) ;
#110 = PERSON_AND_ORGANIZATION ( #197, #18 ) ;
#111 = AXIS2_PLACEMENT_3D ( 'NONE', #177, #198, #101 ) ;
#112 = ORIENTED_EDGE ( 'NONE', *, *, #65, .T. ) ;
#113 = ADVANCED_FACE ( 'NONE', ( #218 ), #239, .T. ) ;
#114 = ORIENTED_EDGE ( 'NONE', *, *, #205, .T. ) ;
#115 = APPROVAL_ROLE ( '' ) ;
#116 = PERSON_AND_ORGANIZATION_ROLE ( 'design_supplier' ) ;
#117 = EDGE_CURVE ( 'NONE', #254, #213, #45, .T. ) ;
#118 = CARTESIAN_POINT ( 'NONE',  ( -7.000000000000000000, 0.000000000000000000, 6.500000000000000000 ) ) ;
#119 = COORDINATED_UNIVERSAL_TIME_OFFSET ( 1, 0, .AHEAD. ) ;
#120 = CARTESIAN_POINT ( 'NONE',  ( 0.000000000000000000, 0.000000000000000000, 6.500000000000000000 ) ) ;
#121 = CARTESIAN_POINT ( 'NONE',  ( 4.000000000000000000, 4.898587196589412829E-16, 400.0000000000000000 ) ) ;
#122 = CIRCLE ( 'NONE', #206, 7.000000000000000000 ) ;
#123 = MECHANICAL_CONTEXT ( 'NONE', #192, 'mechanical' ) ;
#124 = CARTESIAN_POINT ( 'NONE',  ( 7.000000000000000000, 8.572527594031471218E-16, 6.500000000000000000 ) ) ;
#125 = PERSON_AND_ORGANIZATION ( #197, #18 ) ;
#126 = ORIENTED_EDGE ( 'NONE', *, *, #130, .F. ) ;
#127 =( NAMED_UNIT ( * ) SI_UNIT ( $, .STERADIAN. ) SOLID_ANGLE_UNIT ( ) );
#128 = AXIS2_PLACEMENT_3D ( 'NONE', #148, #249, #227 ) ;
#129 = VERTEX_POINT ( 'NONE', #64 ) ;
#130 = EDGE_CURVE ( 'NONE', #69, #235, #32, .T. ) ;
#131 = DATE_AND_TIME ( #252, #61 ) ;
#132 = ORIENTED_EDGE ( 'NONE', *, *, #60, .F. ) ;
#133 = VERTEX_POINT ( 'NONE', #105 ) ;
#134 = SECURITY_CLASSIFICATION ( '', '', #173 ) ;
#135 = ORIENTED_EDGE ( 'NONE', *, *, #157, .F. ) ;
#136 = CARTESIAN_POINT ( 'NONE',  ( 0.000000000000000000, 0.000000000000000000, 6.500000000000000000 ) ) ;
#137 = APPROVAL ( #70, 'NEURÈENÝ' ) ;
#138 = CARTESIAN_POINT ( 'NONE',  ( 0.000000000000000000, 0.000000000000000000, 6.500000000000000000 ) ) ;
#139 = DIRECTION ( 'NONE',  ( -1.000000000000000000, 0.000000000000000000, 0.000000000000000000 ) ) ;
#140 = EDGE_CURVE ( 'NONE', #133, #76, #53, .T. ) ;
#141 = VECTOR ( 'NONE', #142, 1000.000000000000000 ) ;
#142 = DIRECTION ( 'NONE',  ( -0.000000000000000000, -0.000000000000000000, -1.000000000000000000 ) ) ;
#143 = CARTESIAN_POINT ( 'NONE',  ( 0.000000000000000000, 0.000000000000000000, 400.0000000000000000 ) ) ;
#144 = CC_DESIGN_PERSON_AND_ORGANIZATION_ASSIGNMENT ( #96, #116, ( #222 ) ) ;
#145 = PLANE ( 'NONE',  #253 ) ;
#146 = DIRECTION ( 'NONE',  ( 0.000000000000000000, 0.000000000000000000, 1.000000000000000000 ) ) ;
#147 = ADVANCED_FACE ( 'NONE', ( #14 ), #208, .T. ) ;
#148 = CARTESIAN_POINT ( 'NONE',  ( 0.000000000000000000, 0.000000000000000000, 0.000000000000000000 ) ) ;
#149 = DATE_AND_TIME ( #77, #86 ) ;
#150 = CIRCLE ( 'NONE', #111, 4.000000000000000000 ) ;
#151 = ORIENTED_EDGE ( 'NONE', *, *, #130, .T. ) ;
#152 = CALENDAR_DATE ( 2023, 13, 2 ) ;
#153 = PRODUCT_DEFINITION ( 'NEZNÁMÝ', '', #222, #15 ) ;
#154 = AXIS2_PLACEMENT_3D ( 'NONE', #163, #97, #176 ) ;
#155 = DIRECTION ( 'NONE',  ( -0.000000000000000000, -0.000000000000000000, -1.000000000000000000 ) ) ;
#156 = DIRECTION ( 'NONE',  ( 1.000000000000000000, 0.000000000000000000, 0.000000000000000000 ) ) ;
#157 = EDGE_CURVE ( 'NONE', #235, #129, #161, .T. ) ;
#158 = CARTESIAN_POINT ( 'NONE',  ( -4.000000000000000000, 0.000000000000000000, 400.0000000000000000 ) ) ;
#159 = AXIS2_PLACEMENT_3D ( 'NONE', #98, #179, #7 ) ;
#160 = EDGE_CURVE ( 'NONE', #129, #172, #216, .T. ) ;
#161 = LINE ( 'NONE', #124, #71 ) ;
#162 = CARTESIAN_POINT ( 'NONE',  ( 4.000000000000000000, 4.898587196589412829E-16, 6.500000000000000000 ) ) ;
#163 = CARTESIAN_POINT ( 'NONE',  ( 0.000000000000000000, 0.000000000000000000, 6.500000000000000000 ) ) ;
#164 = ORIENTED_EDGE ( 'NONE', *, *, #117, .F. ) ;
#165 = DIRECTION ( 'NONE',  ( 0.000000000000000000, 0.000000000000000000, 1.000000000000000000 ) ) ;
#166 = APPROVAL_PERSON_ORGANIZATION ( #232, #63, #238 ) ;
#167 = PRODUCT_DEFINITION_SHAPE ( 'NONE', 'NONE',  #153 ) ;
#168 = ORIENTED_EDGE ( 'NONE', *, *, #205, .F. ) ;
#169 = ORIENTED_EDGE ( 'NONE', *, *, #93, .T. ) ;
#170 = ORIENTED_EDGE ( 'NONE', *, *, #117, .T. ) ;
#171 = AXIS2_PLACEMENT_3D ( 'NONE', #178, #6, #209 ) ;
#172 = VERTEX_POINT ( 'NONE', #102 ) ;
#173 = SECURITY_CLASSIFICATION_LEVEL ( 'unclassified' ) ;
#174 = AXIS2_PLACEMENT_3D ( 'NONE', #241, #44, #5 ) ;
#175 = DIRECTION ( 'NONE',  ( -0.000000000000000000, -0.000000000000000000, -1.000000000000000000 ) ) ;
#176 = DIRECTION ( 'NONE',  ( -1.000000000000000000, 0.000000000000000000, 0.000000000000000000 ) ) ;
#177 = CARTESIAN_POINT ( 'NONE',  ( 0.000000000000000000, 0.000000000000000000, 400.0000000000000000 ) ) ;
#178 = CARTESIAN_POINT ( 'NONE',  ( 0.000000000000000000, 0.000000000000000000, 400.0000000000000000 ) ) ;
#179 = DIRECTION ( 'NONE',  ( 0.000000000000000000, 0.000000000000000000, 1.000000000000000000 ) ) ;
#180 = AXIS2_PLACEMENT_3D ( 'NONE', #194, #3, #156 ) ;
#181 = CARTESIAN_POINT ( 'NONE',  ( 4.000000000000000000, 4.898587196589412829E-16, 400.0000000000000000 ) ) ;
#182 = PERSON_AND_ORGANIZATION_ROLE ( 'creator' ) ;
#183 = AXIS2_PLACEMENT_3D ( 'NONE', #120, #221, #243 ) ;
#184 = DATE_AND_TIME ( #225, #190 ) ;
#185 = DIRECTION ( 'NONE',  ( 1.000000000000000000, 0.000000000000000000, 0.000000000000000000 ) ) ;
#186 = CC_DESIGN_APPROVAL ( #11, ( #153 ) ) ;
#187 = EDGE_LOOP ( 'NONE', ( #51, #19 ) ) ;
#188 = EDGE_LOOP ( 'NONE', ( #42, #164 ) ) ;
#189 = ADVANCED_FACE ( 'NONE', ( #12 ), #85, .T. ) ;
#190 = LOCAL_TIME ( 15, 18, 58.00000000000000000, #31 ) ;
#191 = EDGE_LOOP ( 'NONE', ( #214, #224, #38, #78 ) ) ;
#192 = APPLICATION_CONTEXT ( 'configuration controlled 3d designs of mechanical parts and assemblies' ) ;
#193 = PERSON_AND_ORGANIZATION_ROLE ( 'classification_officer' ) ;
#194 = CARTESIAN_POINT ( 'NONE',  ( 0.000000000000000000, 0.000000000000000000, 6.500000000000000000 ) ) ;
#195 = EDGE_LOOP ( 'NONE', ( #168, #91, #204, #58 ) ) ;
#196 = LINE ( 'NONE', #242, #66 ) ;
#197 = PERSON ( 'NEURÈENÝ', 'NEURÈENÝ', 'NEURÈENÝ', ('NEURÈENÝ'), ('NEURÈENÝ'), ('NEURÈENÝ') ) ;
#198 = DIRECTION ( 'NONE',  ( 0.000000000000000000, 0.000000000000000000, 1.000000000000000000 ) ) ;
#199 = FACE_BOUND ( 'NONE', #188, .T. ) ;
#200 = EDGE_CURVE ( 'NONE', #213, #254, #106, .T. ) ;
#201 = CC_DESIGN_APPROVAL ( #63, ( #134 ) ) ;
#202 = CARTESIAN_POINT ( 'NONE',  ( -4.000000000000000000, 0.000000000000000000, 6.500000000000000000 ) ) ;
#203 = CARTESIAN_POINT ( 'NONE',  ( 0.000000000000000000, 0.000000000000000000, 0.000000000000000000 ) ) ;
#204 = ORIENTED_EDGE ( 'NONE', *, *, #160, .T. ) ;
#205 = EDGE_CURVE ( 'NONE', #235, #69, #233, .T. ) ;
#206 = AXIS2_PLACEMENT_3D ( 'NONE', #34, #165, #55 ) ;
#207 = AXIS2_PLACEMENT_3D ( 'NONE', #24, #175, #139 ) ;
#208 = PLANE ( 'NONE',  #40 ) ;
#209 = DIRECTION ( 'NONE',  ( -1.000000000000000000, 0.000000000000000000, 0.000000000000000000 ) ) ;
#210 = DIRECTION ( 'NONE',  ( 0.000000000000000000, 0.000000000000000000, 1.000000000000000000 ) ) ;
#211 = ORIENTED_EDGE ( 'NONE', *, *, #251, .F. ) ;
#212 = ADVANCED_FACE ( 'NONE', ( #83 ), #219, .T. ) ;
#213 = VERTEX_POINT ( 'NONE', #202 ) ;
#214 = ORIENTED_EDGE ( 'NONE', *, *, #65, .F. ) ;
#215 = ADVANCED_FACE ( 'NONE', ( #246 ), #145, .F. ) ;
#216 = CIRCLE ( 'NONE', #245, 7.000000000000000000 ) ;
#217 = CC_DESIGN_APPROVAL ( #137, ( #222 ) ) ;
#218 = FACE_OUTER_BOUND ( 'NONE', #30, .T. ) ;
#219 = CYLINDRICAL_SURFACE ( 'NONE', #171, 4.000000000000000000 ) ;
#220 = CC_DESIGN_PERSON_AND_ORGANIZATION_ASSIGNMENT ( #103, #10, ( #49 ) ) ;
#221 = DIRECTION ( 'NONE',  ( 0.000000000000000000, 0.000000000000000000, 1.000000000000000000 ) ) ;
#222 = PRODUCT_DEFINITION_FORMATION_WITH_SPECIFIED_SOURCE ( 'LIBOVOLNÝ', '', #49, .NOT_KNOWN. ) ;
#223 = APPLICATION_PROTOCOL_DEFINITION ( 'international standard', 'config_control_design', 1994, #192 ) ;
#224 = ORIENTED_EDGE ( 'NONE', *, *, #140, .F. ) ;
#225 = CALENDAR_DATE ( 2023, 13, 2 ) ;
#226 = UNCERTAINTY_MEASURE_WITH_UNIT (LENGTH_MEASURE( 1.000000000000000082E-05 ), #250, 'distance_accuracy_value', 'NONE');
#227 = DIRECTION ( 'NONE',  ( 1.000000000000000000, 0.000000000000000000, 0.000000000000000000 ) ) ;
#228 = DIRECTION ( 'NONE',  ( 1.000000000000000000, 0.000000000000000000, -0.000000000000000000 ) ) ;
#229 = EDGE_LOOP ( 'NONE', ( #135, #126, #169, #36 ) ) ;
#230 = COORDINATED_UNIVERSAL_TIME_OFFSET ( 1, 0, .AHEAD. ) ;
#231 = CC_DESIGN_DATE_AND_TIME_ASSIGNMENT ( #107, #16, ( #153 ) ) ;
#232 = PERSON_AND_ORGANIZATION ( #197, #18 ) ;
#233 = CIRCLE ( 'NONE', #174, 7.000000000000000000 ) ;
#234 = AXIS2_PLACEMENT_3D ( 'NONE', #138, #48, #100 ) ;
#235 = VERTEX_POINT ( 'NONE', #13 ) ;
#236 = CYLINDRICAL_SURFACE ( 'NONE', #244, 7.000000000000000000 ) ;
#237 = EDGE_LOOP ( 'NONE', ( #151, #114 ) ) ;
#238 = APPROVAL_ROLE ( '' ) ;
#239 = CYLINDRICAL_SURFACE ( 'NONE', #207, 4.000000000000000000 ) ;
#240 = APPROVAL_DATE_TIME ( #149, #137 ) ;
#241 = CARTESIAN_POINT ( 'NONE',  ( 0.000000000000000000, 0.000000000000000000, 6.500000000000000000 ) ) ;
#242 = CARTESIAN_POINT ( 'NONE',  ( -7.000000000000000000, 0.000000000000000000, 6.500000000000000000 ) ) ;
#243 = DIRECTION ( 'NONE',  ( 1.000000000000000000, 0.000000000000000000, 0.000000000000000000 ) ) ;
#244 = AXIS2_PLACEMENT_3D ( 'NONE', #136, #43, #81 ) ;
#245 = AXIS2_PLACEMENT_3D ( 'NONE', #203, #109, #185 ) ;
#246 = FACE_OUTER_BOUND ( 'NONE', #74, .T. ) ;
#247 = LOCAL_TIME ( 15, 18, 58.00000000000000000, #87 ) ;
#248 = APPROVAL_STATUS ( 'not_yet_approved' ) ;
#249 = DIRECTION ( 'NONE',  ( 0.000000000000000000, 0.000000000000000000, 1.000000000000000000 ) ) ;
#250 =( LENGTH_UNIT ( ) NAMED_UNIT ( * ) SI_UNIT ( .MILLI., .METRE. ) );
#251 = EDGE_CURVE ( 'NONE', #172, #129, #122, .T. ) ;
#252 = CALENDAR_DATE ( 2023, 13, 2 ) ;
#253 = AXIS2_PLACEMENT_3D ( 'NONE', #47, #89, #29 ) ;
#254 = VERTEX_POINT ( 'NONE', #162 ) ;
#255 = ORIENTED_EDGE ( 'NONE', *, *, #104, .F. ) ;
ENDSEC;
END-ISO-10303-21;
