ISO-10303-21;
HEADER;
FILE_DESCRIPTION (( 'STEP AP203' ),
    '1' );
FILE_NAME ('e437.STEP',
    '2023-02-13T14:15:35',
    ( '' ),
    ( '' ),
    'SwSTEP 2.0',
    'SolidWorks 2019',
    '' );
FILE_SCHEMA (( 'CONFIG_CONTROL_DESIGN' ));
ENDSEC;

DATA;
#1 = ORIENTED_EDGE ( 'NONE', *, *, #137, .T. ) ;
#2 = EDGE_CURVE ( 'NONE', #236, #37, #53, .T. ) ;
#3 = CALENDAR_DATE ( 2023, 13, 2 ) ;
#4 = EDGE_CURVE ( 'NONE', #207, #161, #174, .T. ) ;
#5 = DIRECTION ( 'NONE',  ( 1.000000000000000000, 0.000000000000000000, 0.000000000000000000 ) ) ;
#6 = DIRECTION ( 'NONE',  ( 0.000000000000000000, 0.000000000000000000, 1.000000000000000000 ) ) ;
#7 = COORDINATED_UNIVERSAL_TIME_OFFSET ( 1, 0, .AHEAD. ) ;
#8 = AXIS2_PLACEMENT_3D ( 'NONE', #45, #206, #23 ) ;
#9 = APPROVAL_PERSON_ORGANIZATION ( #190, #110, #16 ) ;
#10 = DIRECTION ( 'NONE',  ( 1.000000000000000000, 0.000000000000000000, 0.000000000000000000 ) ) ;
#11 =( NAMED_UNIT ( * ) SI_UNIT ( $, .STERADIAN. ) SOLID_ANGLE_UNIT ( ) );
#12 = ADVANCED_FACE ( 'NONE', ( #75 ), #74, .T. ) ;
#13 = APPROVAL ( #199, 'NEURÈENÝ' ) ;
#14 =( LENGTH_UNIT ( ) NAMED_UNIT ( * ) SI_UNIT ( .MILLI., .METRE. ) );
#15 = CARTESIAN_POINT ( 'NONE',  ( -7.000000000000000000, 0.000000000000000000, 6.500000000000000000 ) ) ;
#16 = APPROVAL_ROLE ( '' ) ;
#17 = EDGE_LOOP ( 'NONE', ( #251, #234, #164, #123 ) ) ;
#18 = CIRCLE ( 'NONE', #87, 4.099999999999999645 ) ;
#19 = VERTEX_POINT ( 'NONE', #47 ) ;
#20 = ORIENTED_EDGE ( 'NONE', *, *, #78, .F. ) ;
#21 = DIRECTION ( 'NONE',  ( 1.000000000000000000, 0.000000000000000000, 0.000000000000000000 ) ) ;
#22 = APPROVAL_STATUS ( 'not_yet_approved' ) ;
#23 = DIRECTION ( 'NONE',  ( 1.000000000000000000, 0.000000000000000000, -0.000000000000000000 ) ) ;
#24 = AXIS2_PLACEMENT_3D ( 'NONE', #185, #130, #210 ) ;
#25 = DIRECTION ( 'NONE',  ( 0.000000000000000000, 0.000000000000000000, 1.000000000000000000 ) ) ;
#26 = DIRECTION ( 'NONE',  ( 1.000000000000000000, 0.000000000000000000, 0.000000000000000000 ) ) ;
#27 = PERSON_AND_ORGANIZATION ( #204, #169 ) ;
#28 = EDGE_LOOP ( 'NONE', ( #196, #100, #1, #217 ) ) ;
#29 = FACE_BOUND ( 'NONE', #179, .T. ) ;
#30 = APPROVAL ( #22, 'NEURÈENÝ' ) ;
#31 = AXIS2_PLACEMENT_3D ( 'NONE', #146, #155, #209 ) ;
#32 = DIRECTION ( 'NONE',  ( 1.000000000000000000, 0.000000000000000000, 0.000000000000000000 ) ) ;
#33 = VECTOR ( 'NONE', #67, 1000.000000000000000 ) ;
#34 = PERSON_AND_ORGANIZATION_ROLE ( 'creator' ) ;
#35 = FACE_OUTER_BOUND ( 'NONE', #183, .T. ) ;
#36 = VECTOR ( 'NONE', #250, 1000.000000000000000 ) ;
#37 = VERTEX_POINT ( 'NONE', #242 ) ;
#38 = AXIS2_PLACEMENT_3D ( 'NONE', #245, #50, #21 ) ;
#39 = AXIS2_PLACEMENT_3D ( 'NONE', #114, #95, #32 ) ;
#40 = EDGE_CURVE ( 'NONE', #19, #255, #56, .T. ) ;
#41 = AXIS2_PLACEMENT_3D ( 'NONE', #228, #166, #239 ) ;
#42 = DATE_AND_TIME ( #3, #216 ) ;
#43 = FACE_OUTER_BOUND ( 'NONE', #143, .T. ) ;
#44 = ORIENTED_EDGE ( 'NONE', *, *, #101, .T. ) ;
#45 = CARTESIAN_POINT ( 'NONE',  ( 0.000000000000000000, 0.000000000000000000, 1000.000000000000000 ) ) ;
#46 = DATE_TIME_ROLE ( 'classification_date' ) ;
#47 = CARTESIAN_POINT ( 'NONE',  ( 7.000000000000000000, 8.572527594031471218E-16, 6.500000000000000000 ) ) ;
#48 = EDGE_CURVE ( 'NONE', #255, #19, #83, .T. ) ;
#49 = CARTESIAN_POINT ( 'NONE',  ( -7.000000000000000000, 0.000000000000000000, 6.500000000000000000 ) ) ;
#50 = DIRECTION ( 'NONE',  ( 0.000000000000000000, 0.000000000000000000, 1.000000000000000000 ) ) ;
#51 = LOCAL_TIME ( 15, 15, 35.00000000000000000, #94 ) ;
#52 = APPLICATION_PROTOCOL_DEFINITION ( 'international standard', 'config_control_design', 1994, #64 ) ;
#53 = CIRCLE ( 'NONE', #31, 4.099999999999999645 ) ;
#54 = PRODUCT_DEFINITION_FORMATION_WITH_SPECIFIED_SOURCE ( 'LIBOVOLNÝ', '', #232, .NOT_KNOWN. ) ;
#55 = APPROVAL_DATE_TIME ( #158, #110 ) ;
#56 = CIRCLE ( 'NONE', #253, 7.000000000000000000 ) ;
#57 = AXIS2_PLACEMENT_3D ( 'NONE', #187, #229, #171 ) ;
#58 = PRODUCT_DEFINITION ( 'NEZNÁMÝ', '', #54, #181 ) ;
#59 = ORIENTED_EDGE ( 'NONE', *, *, #101, .F. ) ;
#60 = ORIENTED_EDGE ( 'NONE', *, *, #137, .F. ) ;
#61 = SHAPE_DEFINITION_REPRESENTATION ( #113, #231 ) ;
#62 = ORIENTED_EDGE ( 'NONE', *, *, #40, .F. ) ;
#63 = FACE_OUTER_BOUND ( 'NONE', #17, .T. ) ;
#64 = APPLICATION_CONTEXT ( 'configuration controlled 3d designs of mechanical parts and assemblies' ) ;
#65 = FACE_OUTER_BOUND ( 'NONE', #124, .T. ) ;
#66 = DATE_TIME_ROLE ( 'creation_date' ) ;
#67 = DIRECTION ( 'NONE',  ( -0.000000000000000000, -0.000000000000000000, -1.000000000000000000 ) ) ;
#68 = DIRECTION ( 'NONE',  ( 0.000000000000000000, 0.000000000000000000, 1.000000000000000000 ) ) ;
#69 = UNCERTAINTY_MEASURE_WITH_UNIT (LENGTH_MEASURE( 1.000000000000000082E-05 ), #14, 'distance_accuracy_value', 'NONE');
#70 = CALENDAR_DATE ( 2023, 13, 2 ) ;
#71 = VERTEX_POINT ( 'NONE', #102 ) ;
#72 = CYLINDRICAL_SURFACE ( 'NONE', #197, 7.000000000000000000 ) ;
#73 = CALENDAR_DATE ( 2023, 13, 2 ) ;
#74 = CYLINDRICAL_SURFACE ( 'NONE', #41, 7.000000000000000000 ) ;
#75 = FACE_OUTER_BOUND ( 'NONE', #28, .T. ) ;
#76 = DIRECTION ( 'NONE',  ( -0.000000000000000000, -0.000000000000000000, -1.000000000000000000 ) ) ;
#77 = CARTESIAN_POINT ( 'NONE',  ( 0.000000000000000000, 0.000000000000000000, 6.500000000000000000 ) ) ;
#78 = EDGE_CURVE ( 'NONE', #71, #188, #141, .T. ) ;
#79 = PERSON_AND_ORGANIZATION ( #204, #169 ) ;
#80 = LINE ( 'NONE', #193, #142 ) ;
#81 = PRODUCT_RELATED_PRODUCT_CATEGORY ( 'detail', '', ( #232 ) ) ;
#82 = ORIENTED_EDGE ( 'NONE', *, *, #167, .T. ) ;
#83 = CIRCLE ( 'NONE', #38, 7.000000000000000000 ) ;
#84 = CC_DESIGN_SECURITY_CLASSIFICATION ( #254, ( #54 ) ) ;
#85 = EDGE_CURVE ( 'NONE', #19, #161, #89, .T. ) ;
#86 = PLANE ( 'NONE',  #121 ) ;
#87 = AXIS2_PLACEMENT_3D ( 'NONE', #109, #68, #144 ) ;
#88 = CARTESIAN_POINT ( 'NONE',  ( 0.000000000000000000, 0.000000000000000000, 1000.000000000000000 ) ) ;
#89 = LINE ( 'NONE', #168, #33 ) ;
#90 = CARTESIAN_POINT ( 'NONE',  ( 7.000000000000000000, 8.572527594031471218E-16, 0.000000000000000000 ) ) ;
#91 = AXIS2_PLACEMENT_3D ( 'NONE', #152, #6, #26 ) ;
#92 = PERSON_AND_ORGANIZATION_ROLE ( 'creator' ) ;
#93 = DIRECTION ( 'NONE',  ( -0.000000000000000000, -0.000000000000000000, -1.000000000000000000 ) ) ;
#94 = COORDINATED_UNIVERSAL_TIME_OFFSET ( 1, 0, .AHEAD. ) ;
#95 = DIRECTION ( 'NONE',  ( 0.000000000000000000, 0.000000000000000000, 1.000000000000000000 ) ) ;
#96 =( NAMED_UNIT ( * ) PLANE_ANGLE_UNIT ( ) SI_UNIT ( $, .RADIAN. ) );
#97 = ORIENTED_EDGE ( 'NONE', *, *, #48, .T. ) ;
#98 = CIRCLE ( 'NONE', #91, 7.000000000000000000 ) ;
#99 = ADVANCED_FACE ( 'NONE', ( #43 ), #72, .T. ) ;
#100 = ORIENTED_EDGE ( 'NONE', *, *, #48, .F. ) ;
#101 = EDGE_CURVE ( 'NONE', #161, #207, #98, .T. ) ;
#102 = CARTESIAN_POINT ( 'NONE',  ( 4.099999999999999645, 5.021051876504147385E-16, 1000.000000000000000 ) ) ;
#103 = DIRECTION ( 'NONE',  ( 1.000000000000000000, 0.000000000000000000, 0.000000000000000000 ) ) ;
#104 = CYLINDRICAL_SURFACE ( 'NONE', #24, 4.099999999999999645 ) ;
#105 = APPROVAL_ROLE ( '' ) ;
#106 = PLANE ( 'NONE',  #57 ) ;
#107 = PERSON_AND_ORGANIZATION_ROLE ( 'classification_officer' ) ;
#108 = CARTESIAN_POINT ( 'NONE',  ( 0.000000000000000000, 0.000000000000000000, 6.500000000000000000 ) ) ;
#109 = CARTESIAN_POINT ( 'NONE',  ( 0.000000000000000000, 0.000000000000000000, 1000.000000000000000 ) ) ;
#110 = APPROVAL ( #248, 'NEURÈENÝ' ) ;
#111 = PERSON_AND_ORGANIZATION_ROLE ( 'design_owner' ) ;
#112 = ADVANCED_FACE ( 'NONE', ( #227 ), #203, .T. ) ;
#113 = PRODUCT_DEFINITION_SHAPE ( 'NONE', 'NONE',  #58 ) ;
#114 = CARTESIAN_POINT ( 'NONE',  ( 0.000000000000000000, 0.000000000000000000, 0.000000000000000000 ) ) ;
#115 = DIRECTION ( 'NONE',  ( 1.000000000000000000, 0.000000000000000000, 0.000000000000000000 ) ) ;
#116 = COORDINATED_UNIVERSAL_TIME_OFFSET ( 1, 0, .AHEAD. ) ;
#117 = ADVANCED_FACE ( 'NONE', ( #127 ), #86, .F. ) ;
#118 = CC_DESIGN_PERSON_AND_ORGANIZATION_ASSIGNMENT ( #27, #107, ( #254 ) ) ;
#119 = CC_DESIGN_PERSON_AND_ORGANIZATION_ASSIGNMENT ( #133, #34, ( #58 ) ) ;
#120 = LOCAL_TIME ( 15, 15, 35.00000000000000000, #222 ) ;
#121 = AXIS2_PLACEMENT_3D ( 'NONE', #148, #25, #208 ) ;
#122 = ORIENTED_EDGE ( 'NONE', *, *, #173, .F. ) ;
#123 = ORIENTED_EDGE ( 'NONE', *, *, #2, .T. ) ;
#124 = EDGE_LOOP ( 'NONE', ( #97, #235 ) ) ;
#125 = PERSON_AND_ORGANIZATION_ROLE ( 'design_supplier' ) ;
#126 = DIRECTION ( 'NONE',  ( -1.000000000000000000, 0.000000000000000000, 0.000000000000000000 ) ) ;
#127 = FACE_OUTER_BOUND ( 'NONE', #221, .T. ) ;
#128 = CC_DESIGN_PERSON_AND_ORGANIZATION_ASSIGNMENT ( #151, #125, ( #54 ) ) ;
#129 = ADVANCED_FACE ( 'NONE', ( #29, #65 ), #106, .T. ) ;
#130 = DIRECTION ( 'NONE',  ( -0.000000000000000000, -0.000000000000000000, -1.000000000000000000 ) ) ;
#131 = CC_DESIGN_DATE_AND_TIME_ASSIGNMENT ( #154, #46, ( #254 ) ) ;
#132 = AXIS2_PLACEMENT_3D ( 'NONE', #214, #76, #249 ) ;
#133 = PERSON_AND_ORGANIZATION ( #204, #169 ) ;
#134 = CARTESIAN_POINT ( 'NONE',  ( -7.000000000000000000, 0.000000000000000000, 0.000000000000000000 ) ) ;
#135 = AXIS2_PLACEMENT_3D ( 'NONE', #200, #170, #10 ) ;
#136 = ORIENTED_EDGE ( 'NONE', *, *, #4, .F. ) ;
#137 = EDGE_CURVE ( 'NONE', #255, #207, #244, .T. ) ;
#138 = EDGE_LOOP ( 'NONE', ( #82, #198 ) ) ;
#139 = ORIENTED_EDGE ( 'NONE', *, *, #238, .F. ) ;
#140 = CC_DESIGN_PERSON_AND_ORGANIZATION_ASSIGNMENT ( #79, #111, ( #232 ) ) ;
#141 = CIRCLE ( 'NONE', #149, 4.099999999999999645 ) ;
#142 = VECTOR ( 'NONE', #93, 1000.000000000000000 ) ;
#143 = EDGE_LOOP ( 'NONE', ( #62, #163, #44, #60 ) ) ;
#144 = DIRECTION ( 'NONE',  ( 1.000000000000000000, 0.000000000000000000, 0.000000000000000000 ) ) ;
#145 = APPROVAL_DATE_TIME ( #42, #13 ) ;
#146 = CARTESIAN_POINT ( 'NONE',  ( 0.000000000000000000, 0.000000000000000000, 6.500000000000000000 ) ) ;
#147 = APPROVAL_ROLE ( '' ) ;
#148 = CARTESIAN_POINT ( 'NONE',  ( 0.000000000000000000, 0.000000000000000000, 0.000000000000000000 ) ) ;
#149 = AXIS2_PLACEMENT_3D ( 'NONE', #88, #202, #103 ) ;
#150 = LOCAL_TIME ( 15, 15, 35.00000000000000000, #7 ) ;
#151 = PERSON_AND_ORGANIZATION ( #204, #169 ) ;
#152 = CARTESIAN_POINT ( 'NONE',  ( 0.000000000000000000, 0.000000000000000000, 0.000000000000000000 ) ) ;
#153 = CC_DESIGN_PERSON_AND_ORGANIZATION_ASSIGNMENT ( #201, #92, ( #54 ) ) ;
#154 = DATE_AND_TIME ( #73, #150 ) ;
#155 = DIRECTION ( 'NONE',  ( 0.000000000000000000, 0.000000000000000000, 1.000000000000000000 ) ) ;
#156 = DIRECTION ( 'NONE',  ( 0.000000000000000000, 0.000000000000000000, 1.000000000000000000 ) ) ;
#157 = CALENDAR_DATE ( 2023, 13, 2 ) ;
#158 = DATE_AND_TIME ( #157, #51 ) ;
#159 = LOCAL_TIME ( 15, 15, 35.00000000000000000, #116 ) ;
#160 = ADVANCED_FACE ( 'NONE', ( #63 ), #104, .T. ) ;
#161 = VERTEX_POINT ( 'NONE', #90 ) ;
#162 = CLOSED_SHELL ( 'NONE', ( #194, #99, #12, #129, #117, #160, #112 ) ) ;
#163 = ORIENTED_EDGE ( 'NONE', *, *, #85, .T. ) ;
#164 = ORIENTED_EDGE ( 'NONE', *, *, #173, .T. ) ;
#165 = COORDINATED_UNIVERSAL_TIME_OFFSET ( 1, 0, .AHEAD. ) ;
#166 = DIRECTION ( 'NONE',  ( -0.000000000000000000, -0.000000000000000000, -1.000000000000000000 ) ) ;
#167 = EDGE_CURVE ( 'NONE', #188, #71, #18, .T. ) ;
#168 = CARTESIAN_POINT ( 'NONE',  ( 7.000000000000000000, 8.572527594031471218E-16, 6.500000000000000000 ) ) ;
#169 = ORGANIZATION ( 'NEURÈENÝ', 'NEURÈENÝ', '' ) ;
#170 = DIRECTION ( 'NONE',  ( 0.000000000000000000, 0.000000000000000000, 1.000000000000000000 ) ) ;
#171 = DIRECTION ( 'NONE',  ( 1.000000000000000000, 0.000000000000000000, -0.000000000000000000 ) ) ;
#172 = DIRECTION ( 'NONE',  ( 0.000000000000000000, 0.000000000000000000, 1.000000000000000000 ) ) ;
#173 = EDGE_CURVE ( 'NONE', #188, #236, #191, .T. ) ;
#174 = CIRCLE ( 'NONE', #135, 7.000000000000000000 ) ;
#175 =( GEOMETRIC_REPRESENTATION_CONTEXT ( 3 ) GLOBAL_UNCERTAINTY_ASSIGNED_CONTEXT ( ( #69 ) ) GLOBAL_UNIT_ASSIGNED_CONTEXT ( ( #14, #96, #11 ) ) REPRESENTATION_CONTEXT ( 'NONE', 'WORKASPACE' ) );
#176 = APPLICATION_PROTOCOL_DEFINITION ( 'international standard', 'config_control_design', 1994, #219 ) ;
#177 = CARTESIAN_POINT ( 'NONE',  ( -4.099999999999999645, 0.000000000000000000, 1000.000000000000000 ) ) ;
#178 = ORIENTED_EDGE ( 'NONE', *, *, #180, .T. ) ;
#179 = EDGE_LOOP ( 'NONE', ( #252, #139 ) ) ;
#180 = EDGE_CURVE ( 'NONE', #71, #37, #80, .T. ) ;
#181 = DESIGN_CONTEXT ( 'detailed design', #219, 'design' ) ;
#182 = PERSON_AND_ORGANIZATION ( #204, #169 ) ;
#183 = EDGE_LOOP ( 'NONE', ( #20, #178, #218, #122 ) ) ;
#184 = CC_DESIGN_APPROVAL ( #110, ( #58 ) ) ;
#185 = CARTESIAN_POINT ( 'NONE',  ( 0.000000000000000000, 0.000000000000000000, 1000.000000000000000 ) ) ;
#186 = CALENDAR_DATE ( 2023, 13, 2 ) ;
#187 = CARTESIAN_POINT ( 'NONE',  ( 0.000000000000000000, 0.000000000000000000, 6.500000000000000000 ) ) ;
#188 = VERTEX_POINT ( 'NONE', #177 ) ;
#189 = CARTESIAN_POINT ( 'NONE',  ( 0.000000000000000000, 0.000000000000000000, 6.500000000000000000 ) ) ;
#190 = PERSON_AND_ORGANIZATION ( #204, #169 ) ;
#191 = LINE ( 'NONE', #213, #36 ) ;
#192 = APPROVAL_PERSON_ORGANIZATION ( #237, #30, #147 ) ;
#193 = CARTESIAN_POINT ( 'NONE',  ( 4.099999999999999645, 5.021051876504147385E-16, 1000.000000000000000 ) ) ;
#194 = ADVANCED_FACE ( 'NONE', ( #35 ), #246, .T. ) ;
#195 = VECTOR ( 'NONE', #223, 1000.000000000000000 ) ;
#196 = ORIENTED_EDGE ( 'NONE', *, *, #85, .F. ) ;
#197 = AXIS2_PLACEMENT_3D ( 'NONE', #108, #240, #126 ) ;
#198 = ORIENTED_EDGE ( 'NONE', *, *, #78, .T. ) ;
#199 = APPROVAL_STATUS ( 'not_yet_approved' ) ;
#200 = CARTESIAN_POINT ( 'NONE',  ( 0.000000000000000000, 0.000000000000000000, 0.000000000000000000 ) ) ;
#201 = PERSON_AND_ORGANIZATION ( #204, #169 ) ;
#202 = DIRECTION ( 'NONE',  ( 0.000000000000000000, 0.000000000000000000, 1.000000000000000000 ) ) ;
#203 = PLANE ( 'NONE',  #8 ) ;
#204 = PERSON ( 'NEURÈENÝ', 'NEURÈENÝ', 'NEURÈENÝ', ('NEURÈENÝ'), ('NEURÈENÝ'), ('NEURÈENÝ') ) ;
#205 = SECURITY_CLASSIFICATION_LEVEL ( 'unclassified' ) ;
#206 = DIRECTION ( 'NONE',  ( 0.000000000000000000, 0.000000000000000000, 1.000000000000000000 ) ) ;
#207 = VERTEX_POINT ( 'NONE', #134 ) ;
#208 = DIRECTION ( 'NONE',  ( 1.000000000000000000, 0.000000000000000000, -0.000000000000000000 ) ) ;
#209 = DIRECTION ( 'NONE',  ( 1.000000000000000000, 0.000000000000000000, 0.000000000000000000 ) ) ;
#210 = DIRECTION ( 'NONE',  ( -1.000000000000000000, 0.000000000000000000, 0.000000000000000000 ) ) ;
#211 = CC_DESIGN_APPROVAL ( #30, ( #254 ) ) ;
#212 = MECHANICAL_CONTEXT ( 'NONE', #64, 'mechanical' ) ;
#213 = CARTESIAN_POINT ( 'NONE',  ( -4.099999999999999645, 0.000000000000000000, 1000.000000000000000 ) ) ;
#214 = CARTESIAN_POINT ( 'NONE',  ( 0.000000000000000000, 0.000000000000000000, 1000.000000000000000 ) ) ;
#215 = CARTESIAN_POINT ( 'NONE',  ( -4.099999999999999645, 0.000000000000000000, 6.500000000000000000 ) ) ;
#216 = LOCAL_TIME ( 15, 15, 35.00000000000000000, #165 ) ;
#217 = ORIENTED_EDGE ( 'NONE', *, *, #4, .T. ) ;
#218 = ORIENTED_EDGE ( 'NONE', *, *, #238, .T. ) ;
#219 = APPLICATION_CONTEXT ( 'configuration controlled 3d designs of mechanical parts and assemblies' ) ;
#220 = CIRCLE ( 'NONE', #230, 4.099999999999999645 ) ;
#221 = EDGE_LOOP ( 'NONE', ( #136, #59 ) ) ;
#222 = COORDINATED_UNIVERSAL_TIME_OFFSET ( 1, 0, .AHEAD. ) ;
#223 = DIRECTION ( 'NONE',  ( -0.000000000000000000, -0.000000000000000000, -1.000000000000000000 ) ) ;
#224 = APPROVAL_DATE_TIME ( #243, #30 ) ;
#225 = APPROVAL_PERSON_ORGANIZATION ( #182, #13, #105 ) ;
#226 = DATE_AND_TIME ( #70, #159 ) ;
#227 = FACE_OUTER_BOUND ( 'NONE', #138, .T. ) ;
#228 = CARTESIAN_POINT ( 'NONE',  ( 0.000000000000000000, 0.000000000000000000, 6.500000000000000000 ) ) ;
#229 = DIRECTION ( 'NONE',  ( 0.000000000000000000, 0.000000000000000000, 1.000000000000000000 ) ) ;
#230 = AXIS2_PLACEMENT_3D ( 'NONE', #77, #156, #115 ) ;
#231 = ADVANCED_BREP_SHAPE_REPRESENTATION ( 'e437', ( #241, #39 ), #175 ) ;
#232 = PRODUCT ( 'e437', 'e437', '', ( #212 ) ) ;
#233 = CC_DESIGN_APPROVAL ( #13, ( #54 ) ) ;
#234 = ORIENTED_EDGE ( 'NONE', *, *, #167, .F. ) ;
#235 = ORIENTED_EDGE ( 'NONE', *, *, #40, .T. ) ;
#236 = VERTEX_POINT ( 'NONE', #215 ) ;
#237 = PERSON_AND_ORGANIZATION ( #204, #169 ) ;
#238 = EDGE_CURVE ( 'NONE', #37, #236, #220, .T. ) ;
#239 = DIRECTION ( 'NONE',  ( -1.000000000000000000, 0.000000000000000000, 0.000000000000000000 ) ) ;
#240 = DIRECTION ( 'NONE',  ( -0.000000000000000000, -0.000000000000000000, -1.000000000000000000 ) ) ;
#241 = MANIFOLD_SOLID_BREP ( 'Pøidat vysunutím3', #162 ) ;
#242 = CARTESIAN_POINT ( 'NONE',  ( 4.099999999999999645, 5.021051876504147385E-16, 6.500000000000000000 ) ) ;
#243 = DATE_AND_TIME ( #186, #120 ) ;
#244 = LINE ( 'NONE', #49, #195 ) ;
#245 = CARTESIAN_POINT ( 'NONE',  ( 0.000000000000000000, 0.000000000000000000, 6.500000000000000000 ) ) ;
#246 = CYLINDRICAL_SURFACE ( 'NONE', #132, 4.099999999999999645 ) ;
#247 = CC_DESIGN_DATE_AND_TIME_ASSIGNMENT ( #226, #66, ( #58 ) ) ;
#248 = APPROVAL_STATUS ( 'not_yet_approved' ) ;
#249 = DIRECTION ( 'NONE',  ( -1.000000000000000000, 0.000000000000000000, 0.000000000000000000 ) ) ;
#250 = DIRECTION ( 'NONE',  ( -0.000000000000000000, -0.000000000000000000, -1.000000000000000000 ) ) ;
#251 = ORIENTED_EDGE ( 'NONE', *, *, #180, .F. ) ;
#252 = ORIENTED_EDGE ( 'NONE', *, *, #2, .F. ) ;
#253 = AXIS2_PLACEMENT_3D ( 'NONE', #189, #172, #5 ) ;
#254 = SECURITY_CLASSIFICATION ( '', '', #205 ) ;
#255 = VERTEX_POINT ( 'NONE', #15 ) ;
ENDSEC;
END-ISO-10303-21;
